PrimaNota.ru - самый крупный в мире бесплатный архив песенных текстов, аккордов, табулатур и нот


Misc Traditional - Sneakin Round - таба, видео

Регистрация Запомнить меня
Войти через:  Facebook Google Twitter Vk Yandex Mail.ru

Misc Traditional - Sneakin Round - таба, видео

Печатать
Просмотров: 81
-------------------------------------------------------------------------------
                             Sneakin' 'Round-Unknown
-------------------------------------------------------------------------------
Tabbed by: ThorChicken
E-mail: privateawesome00@gmail.com

Tuning: Standard

 Chords are placed above tab grid
  {1st}   Am     G     F     E     Am     G     F    E
e|------------------------0----------------------------------------------------------|
B|--------------1---1--------------------1---1-----0---------------------------------|
G|----------2-----2---2-2------------2-----2---2-------------------------------------|
D|-----------------------------------------------------------------------------------|
A|-------0----0-------------------0----0------------------0--------------------------|
E|---0-3--------3-3-1---1---0-0-3--------3-3-1---1--0-0-3----------------------------|
   Am    G   F       E           Am               {End 1st}{2nd}Am        E7    Am
e|-----------------0---------------------------------------||--/5-3-0----------------|
B|-------1---1-------------------/5\3-1-----1---1-0-------:||---------3-1-3b-1-------|
G|---2-----2---2------------------------2-0---2------------||------------------2-----|
D|---------------------------------------------------------||------------------------|
A|-----0-------------------0------------------------------:||--------------------0-2-|
E|-------3-3-1---1---0-0-3---------------------------------||------------------------|
       C       G/B          Am                 {1st}C        G/B   
e|-----0---------------0------------------------|------0-----------------------------|
B|---------1---3-----------1------------1-1---1-|----------1-1--3--------------------|
G|-----------------0---------2-2--------2-2---2-|----------------------0-0-----------|
D|-----2-----2---0-------0-----2----------------|------2-----2-----0-----0-----------|
A|---3---3-----2-----2-----0----------0---3-0---|----3---3------2--------------------|
E|--------------------------------0-3-----------|--3-----------------3---------------|
     Am                      {2nd}Bm7-5           E7                    D.S. al Coda ø
e|--------------------------||--------------------0----------------------------------|
B|-----------------1-1-----:||----3--3--3--3-1-3-------3\----------------------------|
G|---2-------------2-2------||----2--2--2-----------/4---2-0-------------------------|
D|-----2-------------2------||----3--3--3--------------------2-0---------------------|
A|---0---3-0----0------0-2-:||--2-------2------------------------2-0------------0----|
E|-----------3--------------||--------------------0------------------3b-0-0-0-3------|
 ø   Am                       Amadd9
e|------------------------------0----------------------------------------------------|
B|---4-3-1-3-1------------------1----------------------------------------------------|
G|-------------2-0--------------4----------------------------------------------------|
D|-----------------2-0----------2----------------------------------------------------|
A|---------------------3b-0-0---0----------------------------------------------------|
E|-----------------------------------------------------------------------------------|



| /   slide up
| \   slide down
| b   Bend

Thanks for playing!

************************************
Добавлено: 19.07.2015
Другие материалы по этой песне:
  • Аккорды и текст

Страница создана 19.07.2015
http://primanota.ru/misc-traditional/sneakin-round-chords.htm
Привет, Гость.
Предлагаем пройти революционный курс по гитаре.
Подарок от PrimaNota.Ru, забирай!