PrimaNota.ru - самый крупный в мире бесплатный архив песенных текстов, аккордов, табулатур и нот


Misc Traditional - Reflections Of New Hampshire - таба, видео

Регистрация Запомнить меня
Войти через:  Facebook Google Twitter Vk Yandex Mail.ru

Misc Traditional - Reflections Of New Hampshire - таба, видео

Печатать
Просмотров: 93
-------------------------------------------------------------------------------
                             Reflections of New Hampshire - Traditional
-------------------------------------------------------------------------------
Tabbed by: ThorChicken
E-mail: privateawesome00@gmail.com

Tuning: Standard

e|------------------------------------------------2---0--------------------------|
B|---------0-------0--2-----3--0-----0--2-----3---------3--2-----3--0-----0------|
G|-------2-------2--------2--------2--------2---------2--------2--------2--------|
D|-----0--------0-------0--------0--------0---------0--------0--------0----------|
A|-------------------------------------------------------------------------------|
E|---3--------3-------3--------3--------3---------3--------3--------3------------|

e|------------0------------------------------------------------------------------|
B|---2-----3------3-2-0--------0--------1p0------------3---3---------------------|
G|-------2--------2---------0--------0------2-0------2---2---2-------------------|
D|-----0--------0---------4--------4------------0h2p0----------------------------|
A|----------------------2--------2------3----------------------------------------|
E|---3--------3-------0--------0-------------------------------------------------|

e|----------------------------0h2p0---------------------2-0----------------------|
B|---1-0h1p0-------0--------3-------3--1-0h1p0--------------3-1-0---0-1-0h1p0----|
G|-----------2-0-2----2---2--------------------2-0---0--2-0-------2-----------2--|
D|----------------------0--------------------------2--------4-2-0---0-2-0h1p0----|
A|---3---------------------------------3--------------------------3-----------3--|
E|-------------------------------------------------------------------------------|

e|----------------------------------------------------2---0--------------3-------|
B|-------------0--------0--2-----3--0-----0--2-----3--------3--0-----0-----------|
G|---0-2-0---0--------2--------2--------2--------2--------2--------2-------------|
D|---------0--------0--------0--------0--------0--------0--------0---------------|
A|---2-3-------------------------------------------------------------------------|
E|-------3--------3--------3--------3--------3--------3--------3---------3-------|

Thanks for playing!


************************************

| h   hammer-on
| p   pull-off

************************************
Добавлено: 19.07.2015
Другие материалы по этой песне:
  • Аккорды и текст

Страница создана 19.07.2015
http://primanota.ru/misc-traditional/reflections-of-new-hampshire-chords.htm
Привет, Гость.
Предлагаем пройти революционный курс по гитаре.
Подарок от PrimaNota.Ru, забирай!