PrimaNota.ru - самый крупный в мире бесплатный архив песенных текстов, аккордов, табулатур и нот


Misc Traditional - On The Run - таба, видео

Регистрация Запомнить меня
Войти через:  Facebook Google Twitter Vk Yandex Mail.ru

Misc Traditional - On The Run - таба, видео

Печатать
Просмотров: 75
-------------------------------------------------------------------------------
                             On The Run - Traditional
-------------------------------------------------------------------------------
Tabbed by: ThorChicken
E-mail: privateawesome00@gmail.com

Tuning: Standard
ø   Am                                  Fmaj7       
e|---------------------------------------------------------------------------|
B|-----1p0---1p0--------1p0---1p0--------1p0---1p0-------1p0---1p0-----------|
G|-----2p0-2-2p0-0-2----2p0-2-2p0-0-2-2--2p0-2-2p0-0-2-2-2p0-2-2p0-0-2-------|
D|---------2-----0-2--------2-----0-3-3------3-----0-3-3-----3-----0-2-------|
A|---0----------------0------------------------------------------------------|
E|---------------------------------------------------------------------------|
     Am                                E7
e|-----------------------------------------0---1-0---------------------------|
B|-----1p0---1p0--------1p0---1p0--------3-3-3-3---3-1-0---------------------|
G|-----2p0-2-2p0-0-2----2p0-2-2p0-0-2----4---4-----4-2-1---------------------|
D|---------2-----0-2--------2-----0-2------------------2-3-2-0---0-----------|
A|---0----------------0----------------------------------------3---3-2-------|
E|-------------------------------------0-------------------------------------|
                              {To Coda}Am
e|-------------------------------------0-----------------------0-------------|
B|-----1p0---1p0--------1p0---1p0----------------------------------1---------|
G|-----2p0-2-2p0-0-2----2p0-2-2p0-0-2----------------------------------------|
D|---------2-----0-2--------2-----0-2--------0-2-0-----------0---------------|
A|---0----------------0----------------0-2-3-------3-2-0-2-3---3-2-0-2-------|
E|---------------------------------------------------------------------------|
     Dm                              E7                              Am                  D.C. al Coda ø
e|----------------------------------------------------------------------------------------------------|
B|---3-------------------------------3-----------------------0----------------------------------------|
G|---------0-----------------------------------------------------1---2---------------2----------------|
D|---0-2-3---3-2-0---0-2-0---------------2-0-2-0-------------2-0-----------0-2-0-----------0----------|
A|-----------------3-------3-2-0-2-0-2-----------3-2-----0-2-----3-2-0-2-3-------3-2-0-2-3---3-2-0-2--|
E|-------------------------------------0-------------0-4----------------------------------------------|
  ø Coda
e|---------------------------------------------------------------------------|
B|-----1---------------------------------------------------------------------|
G|-----2---------------------------------------------------------------------|
D|-----2---------------------------------------------------------------------|
A|---0-0---------------------------------------------------------------------|
E|---------------------------------------------------------------------------|

Thanks for playing!

************************************

| /   slide up
| \   slide down
| h   hammer-on
| p   pull-off

************************************
Добавлено: 19.07.2015
Другие материалы по этой песне:
  • Аккорды и текст

Страница создана 19.07.2015
http://primanota.ru/misc-traditional/on-run-chords.htm
Привет, Гость.
Предлагаем пройти революционный курс по гитаре.
Подарок от PrimaNota.Ru, забирай!