PrimaNota.ru - самый крупный в мире бесплатный архив песенных текстов, аккордов, табулатур и нот


Misc Traditional - Durins Bane - таба

Регистрация Запомнить меня
Войти через:  Facebook Google Twitter Vk Yandex Mail.ru

Misc Traditional - Durins Bane - таба

Печатать
Просмотров: 97
-------------------------------------------------------------------------------
                             Durin's Bane - Misc Traditional
-------------------------------------------------------------------------------
Tabbed by: ThorChicken
E-mail: privateawesome00@gmail.com

Tuning: Drop-D

e|---------0-2-3-2-0---------3-2-5-3-2-3-2-----------------------------------|
B|-------3-----------3---------------------3-1-----1---1---------------------|
G|-----2---------------2-----------------------------2---2-0-----------------|
D|-----------------------------------------------------------3-0-------------|
A|---------------------------------------------------------------------------|
E|---0---------------------0---------------------0---------------------------|

e|-------2-3-2-----0-----------------1----5-8-5-3h5-1------------------------|
B|-----3----------------3----------1------------------3----3-1h3-1-----------|
G|-------------2-0--------2----0h2---------------------------------2---------|
D|-------------------0-----------------------------------------------3-0-----|
A|---------------------------------------------------------------------------|
E|---0-----------------------0----------0----------------0-------------------|

e|---------0---------------5-3-1-----0--------0-1-3-1-0----------------------|
B|-------3---3------------------------------3-----------3-1----3-------------|
G|-----0-------0-0h2-0---2-------2-0------2----------------------------------|
D|---------------------------------------------------------------------------|
A|---------------------0-----------------------------------------------------|
E|---5----------------------------------0--------------------0---------------|


************************************

| /   slide up
| \   slide down
| h   hammer-on
| p   pull-off

************************************
Добавлено: 13.09.2015
Другие материалы по этой песне:
  • Аккорды и текст

Страница создана 13.09.2015
http://primanota.ru/misc-traditional/durins-bane-chords.htm
Привет, Гость.
Предлагаем пройти революционный курс по гитаре.
Подарок от PrimaNota.Ru, забирай!