PrimaNota.ru - самый крупный в мире бесплатный архив песенных текстов, аккордов, табулатур и нот


Misc Television - The Walking Dead Theme - бас-таба, видео

Регистрация Запомнить меня
Войти через:  Facebook Google Twitter Vk Yandex Mail.ru

Misc Television - The Walking Dead Theme - бас-таба, видео

Печатать
Просмотров: 97
-------------------------------------------------------------------------------
                             The Walking Dead Theme
-------------------------------------------------------------------------------
Tabbed by: Kieran30803
E-mail: kieranclifford@aol.com

Tuning:Standard(Can be done in Half-Step Down Tuning)




|------11-12-11----11-12-11------11-12|
|--9-9---------9-9----------9-9-------|
|-------------------------------------| X4
|-------------------------------------|

|-------9-10-9----9-10-9------9-10-| 
|--7-7--------7-7---------7-7------|
|----------------------------------| X2
|----------------------------------|

|-------7-8-7----7-8-7--------7-8--| 
|--5-5--------5-5---------5-5------|
|----------------------------------| X2
|----------------------------------|

Slide Up to:

|------11-12-11----11-12-11------11-12|
|--9-9---------9-9----------9-9-------|
|-------------------------------------| X4
|-------------------------------------|

Outro:

|-------11-12-11---|
|--9-9-----------9-|
|------------------|
|------------------|


| /  slide up
| \  slide down
| h  hammer-on
| p  pull-off
| ~  vibrato
| +  harmonic
| x  Mute note
===============================================================================
Добавлено: 15.03.2016
Другие материалы по этой песне:
  • Аккорды и текст

Страница создана 15.03.2016
http://primanota.ru/misc-television/walking-dead-theme-chords.htm
Привет, Гость.
Предлагаем пройти революционный курс по гитаре.
Подарок от PrimaNota.Ru, забирай!