PrimaNota.ru - самый крупный в мире бесплатный архив песенных текстов, аккордов, табулатур и нот


Misc Television - Formula1 2004 - таба, видео

Регистрация Запомнить меня
Войти через:  Facebook Google Twitter Vk Yandex Mail.ru

Misc Television - Formula1 2004 - таба, видео

Печатать
Просмотров: 103
Formula 1 2004 season
---------------------
 

Here's something I worked out the other day whilst watching the Italian
Grand
Prix.  It's the music to ITV's coverage of the 2004 Formula 1 season, the
timing etc.... on the tab isn't great but it gives you the general idea.
 
h = hammer on
p = pull off
 
-----------------------------------------
-----------------------------------------
-----------------------------------------
---------------------------7-7-----------       x 2
---7-7--7-7---7----5-5--5--5-5-----------
---5-5--5-5---5----3-3--3----------------
 

------------------------------------------
------------------------------------------
------------------------------------------
-----------9--7------------------9--7-----
---7-------7--5----------7-------7--5-----
---5---------------------5----------------
 
 
 
------------------------------------------
-----------h-p----------------------------
---9------7^9^7-----9-7-6-----------------
--------------------------7---------------        x 2
----------------------------7-------------
------------------------------------------
 
 
 
------------------------------------------
------------------------------------------
------------------------------------------
-----------9--7------------------9--7-----
---7-------7--5----------7-------7--5-----
---5---------------------5----------------
 

Any comments or suggestions can be sent to luap_2003_7@hotmail.com
 
Have fun.
 
Tabbed by Paul Last on the 16th September 2004

     
Добавлено: 04.11.2013
Другие материалы по этой песне:
  • Аккорды и текст

Страница создана 04.11.2013
http://primanota.ru/misc-television/formula1-2004-chords.htm
Привет, Гость.
Предлагаем пройти революционный курс по гитаре.
Подарок от PrimaNota.Ru, забирай!