PrimaNota.ru - самый крупный в мире бесплатный архив песенных текстов, аккордов, табулатур и нот


Misc Television - Knightmare - таба, видео

Регистрация Запомнить меня
Войти через:  Facebook Google Twitter Vk Yandex Mail.ru

Misc Television - Knightmare - таба, видео

Печатать
Просмотров: 96
 Theme: Knightmare - CITV
 Written By: ???
 Tabbed By: Lee Thomas Robson  The_Axis@gmx.co.uk> 21/11/2002
 
 The Bass in this version has been simplified from the original.
 Guitar 1 plays the melody, Guitar 2 is the Bass (with palm-muting).  
 Where it's written C and D, Guitar 2 plays the powerchords C and D

 Intro:         G            Theme:
 e|-----------|-this-is-the-|-G------------------------------------|
 b|-8--\--3---|-bass-rythm--|------------------3--0---------1------|
 g|-fast-pick-|-simplified--|--------0--2------------0--------2----|
 d|-and-slow--|-------------|-0-------------------------2----------|
 a|-slide-----|-------------|--------------------------------------|
 e|-----------|-3-3-3-3-3-3-|(contine-bass-rythm)------------------|
                - - - - - -                    A
 e|-----C------D---|-------------------------|------------|
 b|----------------|--------------------5--8-|-10--\--5---|
 g|----------------|--------------5--7-------|-fast-pick--|
 d|-5p4-5------*---|-------5--7--------------|-and-slow---|
 a|-----*------5---|-5--7--------------------|-slide-again|
 e|----------------|-------------------------|------------|
    A
 e|----------------------------------------|
 b|------------------5--2---------2--------|
 g|--------2--4------------2--------4------|
 d|-2-------------------------4------------|
 a|----------------------------------------|
 e|----------------------------------------|
        F           G           A
 e|------------------------------------|
 b|------------------------------------|
 g|-2p1-2-----------4-----------2------|
 d|-----------3-----------5-----2------|
 a|-----------------------------0------|
 e|-----1-1-1-1-1-1-3-3-3-3-3-3--------|

     
Добавлено: 20.08.2013
Другие материалы по этой песне:
  • Аккорды и текст

Страница создана 20.08.2013
http://primanota.ru/misc-television/knightmare-chords.htm
Привет, Гость.
Предлагаем пройти революционный курс по гитаре.
Подарок от PrimaNota.Ru, забирай!