PrimaNota.ru - самый крупный в мире бесплатный архив песенных текстов, аккордов, табулатур и нот


Misc Television - Nescafe - таба, видео

Регистрация Запомнить меня
Войти через:  Facebook Google Twitter Vk Yandex Mail.ru

Misc Television - Nescafe - таба, видео

Печатать
Просмотров: 150
       XXXXXXXXXX NESCAFE THEME SONG XXXXXXXX

       It's a simple and nice pluging song,enjoy it!
  (Well,I 'm not sure wether this song is put to all nescafe commercial
       in other regions or country )

   
   This little riff is worked out by my pal,Aaron Chan  cleoo@tm.net.my>

e|------------------------------------------------------------------------|
b|-----3-----3-----3-----3-----3-----3----3-----3-----3-----3----3-----3--|
g|--------2-----------2-----------2----------2-----------0----------0-----|
d|--0-----------0---------------------------------------------------------|
a|--------------------------3-----------3----------2-----------2----------|
E|------------------------------------------------------------------------|
          
  then.................(this part is worked out by me)
e|------------------------------------------------------------------------|
b|-----10--10--10---------------------------------------------------------|
g|-----------------10--12--12--12--15--14---------------------------------|
d|------------------------------------------------------------------------|
a|------------------------------------------------------------------------|
E|------------------------------------------------------------------------|



                 enjoy!!!!!!!!

     
Добавлено: 23.11.2013
Другие материалы по этой песне:
  • Аккорды и текст

Страница создана 23.11.2013
http://primanota.ru/misc-television/nescafe-chords.htm
Привет, Гость.
Предлагаем пройти революционный курс по гитаре.
Подарок от PrimaNota.Ru, забирай!