PrimaNota.ru - самый крупный в мире бесплатный архив песенных текстов, аккордов, табулатур и нот


Misc Soundtrack - Rock On - Pichle Saat Dinon Mein - таба, видео

Регистрация Запомнить меня
Войти через:  Facebook Google Twitter Vk Yandex Mail.ru

Misc Soundtrack - Rock On - Pichle Saat Dinon Mein - таба, видео

Печатать
Просмотров: 95
                         Pichle saat dinon mein
                            From “Rock On!!”

Tabbed by:Sanjeev George and Thomas George
Email:SanjeevGeorge123@yahoo.co.in

Submitted to and for www.ultimate-guitar.com, the site for all your tab needs

Tuning:std

Main riff used in the intro and throughout the song

e|-----------------|
B|-----------------|
G|------2----------|
D|------2----------|
A|------0---2-2-2--|
E|----3------------|

Verse(meri laundry ka ek bill…):Above riff as reqd.

Stanzas
e|---------2---------3-------5--------5--------|
B|---------2---------3-------5--------5--------|
G|----4----4----5----5-------6--------6--------|
D|----4----4----5----5----7--7--5--5--7--------| x 3
A|----2----2----3----3----7--7--5--5--7--------|
E|----2----2----3----3----5--5--3--3--5--------|

End each stanza with this(Kabhi khud pe hansa main……)
e|---------|
B|---------|
G|---------|
D|--2------|
A|--2------|
E|---------|

For chorus, use the main riff as reqd(Na na na na na….)

Solo: main riff x 16 times

Bridge(kaise tumse.......)

e|------------0-----------------0----------------0----------------0----------|
B|----------0---0-------------0---0------------0---0------------0---0--------|
G|--------0-------0---------0-------0--------0-------0--------0-------0------|
D|------2-----------2----------------------2-----------2----4-----------4----|
A|-----------------------2------------2--3----------------2------------------|
E|----0----------------3-----------------------------------------------------|

Another guitar strums E5   G5   C5   B5    lightly

Back to stanza (Hum jo…..)

Chorus till end

End on an E5

| /  slide up
| \  slide down
| h  hammer-on
| p  pull-off
| ~  let ring
| +  harmonic
| x  Mute note
| v  vibrato

Please rate the tab.
Добавлено: 10.06.2012
Другие материалы по этой песне:
  • Аккорды и текст

Страница создана 10.06.2012
http://primanota.ru/misc-soundtrack/rock-on-pichle-saat-dinon-mein-chords.htm
Привет, Гость.
Предлагаем пройти революционный курс по гитаре.
Подарок от PrimaNota.Ru, забирай!