PrimaNota.ru - самый крупный в мире бесплатный архив песенных текстов, аккордов, табулатур и нот


Misc Soundtrack - Rock On - Socha Hai - таба, видео

Регистрация Запомнить меня
Войти через:  Facebook Google Twitter Vk Yandex Mail.ru

Misc Soundtrack - Rock On - Socha Hai - таба, видео

Печатать
Просмотров: 120
PTL

                                        Socha Hai

                    From the Hindi movie Rock On!!

By Sanjeev George and Thomas George

Contact at SanjeevGeorge123@yahoo.co.in

Tuning: standard

INTRO
Guitar 1
e|--------------------------------------------------------------------------------|
B|--------------------------------------------------------------14-15-------------|
G|----------------------6-7-------------------12--14-16v----16---------14/16-14~--|
D|--7~----5--7-9v----9--------7/9-7v----7~-----------------------------------14~--|
A|--5~----------------------------------5~-----------------------------------12~--|
E|--------------------------------------------------------------------------------|

Guitar 2 played in verses also
e|----------------------------------------------------------------|
B|----------------------------------------------------------------|
G|-7---7---7---7---7---7---7---7---7---7---7---7---7--7--7--7-----|keep playin
D|---7---7---7---7---5---5---5---5---9---9---9---9---7--7--7--7---|
A|----------------------------------------------------------------|
E|----------------------------------------------------------------|

Guitar 1
e|-----------------------------------|
B|-----------------------------------|
G|--7v--------------6-7v-------------|twice
D|------5--7-9v---9-------7/9-7v-----|
A|-----------------------------------|
E|-----------------------------------|

VERSE( Aasman hai neela kyun…..)
Guitar 1 in verses
e|-----------------------------------|
B|-----------------------------------|
G|--7v--------------6-7v-------------|
D|------5---------9-------7/9-7v-----|
A|-----------------------------------|
E|-----------------------------------|

Chords for the verses: D5  G5  B5  A5  

CHORUS (Socha Hai!!…): D5  G5  D5  B5  D5  A5  D5

BRIDGE 
Guitar 2(Acoustic)   D  G  G ( sannata sunayi….)

                     D  G  G

                     D  E  C  (socha hai kya kabhi)

                     D  D  E  C

Guitar 1
e|---------------------|-10-12-14v—14b15r14---------------------------|
B|--10--8-7------------|--------------------15----15-15b17r15v--------|
G|---9------9-7-9v-----|-----------------------14---------------------|
D|---------------------|----------------------------------------------|
A|---------------------|----------------------------------------------|
E|---------------------|----------------------------------------------|

SOLO
Guitar 2 backing SOLO RHYTHM (acoustic) D  G  Bm  A  play 4 times
Guitar 1
e|---------------------------------------------------------------------------|
B|---------------------------------------------------------------------------|
G|---------------------------------------------------------------------------|
D|----7v---7-9---7v----7-9---7h9p7-------------------------7v---7-9---7v-----|
A|-------------9-----------9-------9----7-9-5-7v-------7-9----------9--------|
E|-----------------------------------10-------------10-----------------------|

e|-----------------------------------------------------------------------------|
B|-----------------------------------------10--------------10-10---------------|
G|---------------------------------------7----9b11r9-7v----------9b11r9-7---7--|
D|--777-9---777----------------------7-9-----------------9----------------9----|
A|--------9-----9----7-9----7v----/9-------------------------------------------|
E|----------------10-----10----------------------------------------------------|

e|-----------------------------------17----------------17------------------------|
B|--------------------------------15----17b19r17-15--------17b19r17-15-----15----|
G|-9b11r9-7-9---7-9--------/14h16-------------------16------------------16-------|
D|------------9-----7v-----------------------------------------------------------|
A|-------------------------------------------------------------------------------|
E|-------------------------------------------------------------------------------|

e|---------------------------------------------------------------------------|
B|-17-19-20-21-22-19-20-17-19-15-17------------------------------------------|
G|----------------------------------14-16------------------------------------|
D|----------------------------------------14b16-r14-12vv---------------------|
A|---------------------------------------------------------------------------|
E|---------------------------------------------------------------------------|

e|----------------------------------|
B|----------------------------------|
G|---------------6-7v------------7v-|twice
D|---5--7-9v---9-------7/9-7v-------|
A|----------------------------------|
E|----------------------------------|


Guitar 2
e|----------------------------------------------------------------|
B|----------------------------------------------------------------|
G|-7---7---7---7---7---7---7---7---7---7---7---7---7--7--7--7-----|keep playin
D|---7---7---7---7---5---5---5---5---9---9---9---9---7--7--7--7---|
A|----------------------------------------------------------------|
E|----------------------------------------------------------------|

REPEAT VERSE AND CHORUS AGAIN

SONG ENDS ON C5 C5 C5 C5 B5 AND D5


| /  slide up
| \  slide down
| h  hammer-on
| p  pull-off
| v  vibrato
| ~  let ring
| x  Mute note

Please rate. Thank you



Добавлено: 16.07.2012
Другие материалы по этой песне:
  • Аккорды и текст

Страница создана 16.07.2012
http://primanota.ru/misc-soundtrack/rock-on-socha-hai-chords.htm
Привет, Гость.
Предлагаем пройти революционный курс по гитаре.
Подарок от PrimaNota.Ru, забирай!