PrimaNota.ru - самый крупный в мире бесплатный архив песенных текстов, аккордов, табулатур и нот


Misc Soundtrack - Rock On Theme - таба, видео

Регистрация Запомнить меня
Войти через:  Facebook Google Twitter Vk Yandex Mail.ru

Misc Soundtrack - Rock On Theme - таба, видео

Печатать
Просмотров: 156
Уроки эстрадного вокала в Санкт-Петербурге
                        Rock On

Title track from the Hindi movie “ROCK ON!!”

Tabbed by: Sanjeev George and Thomas George

Email: SanjeevGeorge123@yahoo.co.in

Tuning: Standard

Intro Riff and riff played throughout the song, in verses also

e|--------------------------------|
B|--------------------------------|
G|--------------------5-----------|
D|--------7/8-------5-5-----------|
A|----0-0-7-----x-5-5-------------|
E|--------------------------------|
      . .         . 

Verse 1

    A5
e|-----------------------------------------------------------------|
B|-----------------------------------------------------------------|
G|-----------------------------------------------------------------|
D|--7------------------------7-----------------------------7-------|
A|--7------------------------7-----------------------------7-------|
E|--5------------------------5----------------------0-3v-0-5-------|
    Dil ye kehta hai….        Dil karta hai tv..


Chorus

      A5       G5       D6      F5      G5
e|---------------------------------------------|
B|---------------------------------------------|
G|---------------------------------------------|
D|---------------------------------------------|twice
A|--77777777-55555555-00000000-33333-3/5555----|
E|--55555555-33333333-22222222-11111-1/3333----|


Verse 2

e|---------------------------------------------------------------------------------|
B|---------------------------------------------------------------------------------|
G|-------------5-------------5h7p5-------5/--------5-------------------------------|
D|-7---------7-5-7-7/--------------7---5---------7-5-7-7/------------------7-------|
A|-7---------7---7-7/----------------7-----------7---7-7/------------------7-------|
E|-5----------------------------------------------------------------0-3v-0-5-------|
             Zor se gaon……                  ……..geet sunaon…

Solo
e|----------------------------------------------------------------------|
B|----------------------------------------------------------------------|
G|----------------------------------------------------------------------|
D|----------------------------------------------------------------------|
A|----------------3-3-----------------------------3-3-------------------|
E|----2--3—-5v--------5p3p0-3-5-5v---2--3-5v----3------5p3p0-3h5-5v-----|

e|----------------------------------------------------------------------|
B|----------------------------------------------------------------------|
G|----------------------------------------------------------------------|
D|------5v---7p5---5v---7p5---5v---7p5-0---------------5v---7p5---5v----|
A|--5/7----------7----------7-------------3v---5p3p0h3----------7-------|
E|----------------------------------------------------------------------|

e|----------------------------------------------------------------------|
B|----------------------------------------------------------------------|
G|------------------------------------------------5---------------------|
D|--7p5---5v---7p5---5v---7p5-0------------5--5-7---7p5---7-5v-7p5------|
A|------7----------7-------------3v----3h7--------------7---------------|
E|----------------------------------------------------------------------|
                                              . .

e|--------------------------5-------------------------------------------|
B|---------------------8b10---5-8-5-5-----------------------------------|
G|-----5------------------------------8-7-5---5--7-7h8-7-5-----5--------|
D|---5---7p5---5—7v-------------------------7--------------7-5---7-7v---|
A|-7---------7----------------------------------------------------------|
E|----------------------------------------------------------------------|
   . .

e|---------------------------------------------------|
B|------8-------------------8------------------------|
G|----5-7b9--5------------5-7b9—-5-------------------|
D|--7------------7p5---5-7-----------7p5---5--5------|
A|-------------------7-------------------7-----------|
E|---------------------------------------------------|

e|---------------------------------------------------------|
B|---------------------------------------------------------|
G|--7b8--7-5---5-7-5---5-----------------------------------|
D|-----------7-------7---7-5---5-----------5/7—7p5-4v------|
A|---------------------------7---5v---5v-------------------|
E|----------------------------------8----8-----------------|


Bridge (Aise jeene ko dil chaahe……)  F#m   C   G     F#m     
                                     F#m   C   F#m   G


Small outro lick

e|----------------------------------15-17v----|
B|-------------------------------13-----------|
G|---14-14v-----12h14-14v-----14--------------|
D|--------------------------------------------|
A|--------------------------------------------|
E|--------------------------------------------|


| /  slide up
| \  slide down
| h  hammer-on
| p  pull-off
| v  vibrato
| .  Mute the note with fretting finger

Please rate and comment. Thank you
Добавлено: 14.07.2012
Другие материалы по этой песне:
  • Аккорды и текст

Страница создана 14.07.2012
http://primanota.ru/misc-soundtrack/rock-on-theme-chords.htm
Привет, Гость.
Предлагаем пройти революционный курс по гитаре.
Подарок от PrimaNota.Ru, забирай!