PrimaNota.ru - самый крупный в мире бесплатный архив песенных текстов, аккордов, табулатур и нот


Misc Soundtrack - Rock On - Zehreelay - таба

Регистрация Запомнить меня
Войти через:  Facebook Google Twitter Vk Yandex Mail.ru

Misc Soundtrack - Rock On - Zehreelay - таба

Печатать
Просмотров: 149
Уроки эстрадного вокала в Санкт-Петербурге
-------------------------------------------------------------------------------
                               Zehreelay solo

                         From the Hindi movie “ROCK ON!!”
-------------------------------------------------------------------------------
Tabbed by: Sanjeev George and Thomas George
Email: SanjeevGeorge123@yahoo.co.in


Tuning: standard

e|----------------------------------------------------------------|
B|------------10h11p10h11p10--------------------------------------|
G|-----12b14-----------------12-11-10-9—9h10p9h10p9\8-------------|
D|----------------------------------------------------12-10-9-----|
A|----------------------------------------------------------------|
E|----------------------------------------------------------------|

e|----------------------------------------------------------------|
B|----------------------------------------------------------------|
G|----------------------------------------------------------------|
D|-10-11-10-8-7-8-10-7p5---5-5/7-5h7-5v---5h7-7/8\7-5h7p5-5-5-----|
A|-----------------------7----------------------------------------|
E|----------------------------------------------------------------|

e|---------------------------------------------------------------------------|
B|---------------------------------------------------------------------------|
G|-----5h6p5------------------------------------------------------9b12r9b12--|
D|-7h8-------8-7p5h7-5---5-7h8-7b8r7b8r7b8r7b8r7-7v--\-7h10/12\10------------|
A|---------------------7-----------------------------------------------------|
E|---------------------------------------------------------------------------|

e|--------------------------------------------------------------------|
B|-------------------8-------8----------------------------------------|
G|--7\5---5--------7---7/8-8---10-10b11r10b11r10b11r10b11r-10v--------|
D|------7-----8/10----------------------------------------------------|
A|--------------------------------------------------------------------|
E|--------------------------------------------------------------------|

e|--------------------------------------------------14-15b16r15b16r15b16r15b16-16v--|
B|--13h14p13----------13h14h16/17\16—17\14----14-15---------------------------------|
G|-----------15p14h15----------------------17---------------------------------------|
D|----------------------------------------------------------------------------------|
A|----------------------------------------------------------------------------------|
E|----------------------------------------------------------------------------------|

e|--------------12h13p12-----------------------------------------------------|
B|--------12h15----------15-14-13-12-----------------------------------------|
G|--12/15----------------------------15p12—17b20r17b20r17b20r17b20r-17v------|
D|---------------------------------------------------------------------------|
A|---------------------------------------------------------------------------|
E|---------------------------------------------------------------------------|

e|---------------------------------------------------------------------------|
B|---------------------------------------------------------------------------|
G|-17-14-13-12--12-12--------------------------------------------------------|
D|--------------------14p13p12-------12h13p12-12b13r12b13r12b13r12b13r-13v---|
A|-----------------------------12h15-----------------------------------------|
E|---------------------------------------------------------------------------|

e|-----------------------------7h8p7p5-5\4h5---/12-13-15/16-16b17r16b17r16b17r-16v---|
B|-------------------------5h6-------------------------------------------------------|
G|-------7h8-8-9-8---4h6h7-----------------------------------------------------------|
D|-/7-10-----------------------------------------------------------------------------|
A|-----------------------------------------------------------------------------------|
E|-----------------------------------------------------------------------------------|

e|-------17b19—-17b19-17b19-17p15--------------------------------------------|
B|-15-15--------------------------17-15p3----15b17r15b17r15b17r15b17-17v-----|
G|----------------------------------------14---------------------------------|
D|---------------------------------------------------------------------------|
A|---------------------------------------------------------------------------|
E|---------------------------------------------------------------------------|

e|---------------------------------------------------------------------------|
B|--15h17-13h5-13—13b16---13v---15h17-13h15-12h13p12-10----------------------|
G|-------------------------------------------------------13p12p10------------|
D|----------------------------------------------------------------13p12------|
A|---------------------------------------------------------------------------|
E|---------------------------------------------------------------------------|
             Hold bend at 16

e|---------------------------------------------------------------------------|
B|---------------------------------------------------------------------------|
G|---------------------------------------------------------------------------|
D|--10h12p10---12--------12h13p12\10-12---10b12r10b12r10b12r10b12r-10v-------|
A|----------------12h15------------------------------------------------------|
E|---------------------------------------------------------------------------|

We're sure Ehsaan has used cool effects, but this is done without any…so hope it's 
Please rate. Thank you

| /  slide up
| \  slide down
| h  hammer-on
| p  pull-off
| v  vibrato
Добавлено: 19.04.2012
Другие материалы по этой песне:
  • Аккорды и текст

Страница создана 19.04.2012
http://primanota.ru/misc-soundtrack/rock-on-zehreelay-chords.htm
Привет, Гость.
Предлагаем пройти революционный курс по гитаре.
Подарок от PrimaNota.Ru, забирай!