PrimaNota.ru - самый крупный в мире бесплатный архив песенных текстов, аккордов, табулатур и нот


Misc Soundtrack - For a few dollars more - таба

Регистрация Запомнить меня
Войти через:  Facebook Google Twitter Vk Yandex Mail.ru

Misc Soundtrack - For a few dollars more - таба

Печатать
Просмотров: 148



Date: Sat, 17 Jun 2006 07:55:24 -0500
From: Bill 
Subject: m/misc_soundtrack/for_a_few_dollars_more.tab

Gtr I (E A D G B E) - 'Theme from Clint Eastwood Western For A Few
Dollars More
 
 4/4
  Gtr I
       TPTPTP             TPTPTP          TPTPTP
   E E S S S  Q H H   E E S S S Q H H Q E S S S Q H E E Q E E Q E Q Q
|-------------1-5---------------1-5-----1-1-1-1-5-8-5-1-----1-5-1-----|
|----3-3-3-3------------3-3-3-3-------3-----------------3-3-----------|
|-2-----------------2-------------------------------------------2-2-|
|---------------------------------------------------------------------|
|---------------------------------------------------------------------|
|---------------------------------------------------------------------|
 

  E H H T E  H W
|---1-3-1p0----------||
|-3---------h3------o||
|--------------------||
|--------------------||
|-------------------o||
|--------------------||
 

       TPTPTP         TPTPTP         TPTPTP
   Q Q S S S E H  Q Q S S S E H  Q Q S S S E E Q  E E E E E E E E E Q
H
|--------------------------------------------1-5--5-1-3---1-1---0--------|
|----3-3-3-3-3------3-3-3-3-3------3-3-3-3-3------------3-----3---1------|
|-2-------------2-------------2----------------------------------2----|
|------------------------------------------------------------------------|
|------------------------------------------------------------------------|
|------------------------------------------------------------------------|
 

       TPTPTP         TPTPTP        TPTPTP
   Q E S S S E H  Q E S S S E H Q E S S S E H E E Q E E Q E E Q E E H
H
|---------------------------------1-1-1-1-5-8-5-1-----1-5-3-1-------1-3--|
|----3-3-3-3-3------3-3-3-3-3---3-----------------3-3-------------3------|
|-2-------------2-------------------------------------------2-2--------|
|------------------------------------------------------------------------|
|------------------------------------------------------------------------|
|------------------------------------------------------------------------|
 

  T E  H
|-1p0-------|
|-----h3----|
|-----------|
|-----------|
|-----------|
|-----------|
 

Duration Legend
---------------
W - whole; H - half; Q - quarter; E - 8th; S - 16th; T - 32nd; X -
64th; a - acciaccatura
+ - note tied to previous; . - note dotted; .. - note double dotted
Uncapitalized letters represent notes that are staccato (1/2
duration)
Irregular groupings are notated above the duration line
Duration letters will always appear directly above the note/fret
number it represents the
duration for.  Duration letters with no fret number below them
represent rests.  Multi-
bar rests are notated in the form Wxn, where n is the number of bars
to rest for.  Low
melody durations appear below the staff
 
Tablature Legend
----------------
 h   - hammer-on
 p   - pull-off
 b   - bend
 pb  - pre-bend
 r   - bend release (if no number after the r, then release
immediately)
 /  - slide into or out of (from/to nowhere)
 s   - legato slide
 S   - shift slide
  - natural harmonic
[n]  - artificial harmonic
n(n) - tapped harmonic
 ~   - vibrato
 tr  - trill
 T   - tap
 TP  - trem. picking
 PM  - palm muting
n/  - tremolo bar dip; n = amount to dip
 n  - tremolo bar down
 n/  - tremolo bar up
/n  - tremolo bar inverted dip
 =   - hold bend; also acts as connecting device for hammers/pulls
   - volume swell (louder/softer)
 x   - on rhythm slash represents muted slash
 o   - on rhythm slash represents single note slash
 
Misc Legend
-----------
 |  - bar
||  - double bar
||o - repeat start
o|| - repeat end
*|  - double bar (ending)
 :  - bar (freetime)
 $  - Segno
 amp;  - Coda
Tempo markers -  = BPM(8/16=s8/s16), where s8 = swing
8ths, s16 = swing 16ths
 

****************************************************************************
* Generated using Power Tab Editor by Brad Larsen -
http://powertab.guitarnetwork.org *
****************************************************************************
William J. Schimmer
808 Loblolly Ct
Fort Walton Beach, FL 32548-3304
yankee@bsc.net


Добавлено: 10.08.2013
Другие материалы по этой песне:
  • Аккорды и текст

Страница создана 10.08.2013
http://primanota.ru/misc-soundtrack/for-a-few-dollars-more-chords.htm
Привет, Гость.
Предлагаем пройти революционный курс по гитаре.
Подарок от PrimaNota.Ru, забирай!