PrimaNota.ru - самый крупный в мире бесплатный архив песенных текстов, аккордов, табулатур и нот


Misc Soundtrack - Nightmare before christmas making christmas - таба, видео

Регистрация Запомнить меня
Войти через:  Facebook Google Twitter Vk Yandex Mail.ru

Misc Soundtrack - Nightmare before christmas making christmas - таба, видео

Печатать
Просмотров: 102
Уроки эстрадного вокала в Санкт-Петербурге


e   -----------------------------------------------------------------------------------------------------------------------
B  -----------------------------------------------------------------------------------------------------------------------
G  -----------------------------------------------------------------------------------------------------------------------
D  ---3-2-------------3-2-------------------------------------------------------------3-2-3-0-3-2-3-0-3-2-3-0----
A  -------------------------------------------------------3-2-3-0-3-2-3-0-323---------------------------------------
E  -------------------------------5-4-5-2-----3230--------------------------------------------------------------------

e  ------------------------------------------------------------------------------------------------------------------------
B  -----------------------------------------------------------------------------------------------------------------------
G ------------------------------------------------------------------------------------------------------------------------
D ---------------------------------------------------------------------------------0-0-2-3-----5-4-5-2-5-4-5-2------
A --5-4-5-2-5-4-5-2-545s2--2-3-0-3-2-3-0-3-2-3-0-3-2-3-0--0-0-2-3----------------------------------------
E  ------------------------------------------------------------------------------------------------------------------------

e  ------------------------------------------------------------------------------------------------------------------------
B ------------------------------------------------------------------------------------------------------------------------
G ------------------------------------------------------------------------------------------------------------------------
D 3-2-3-0-3-2-3-0--------------------------4-4-3-5-4---------------------------------------------------------------
A -----------------------3-2-3-0-3-2-3-0-------------------3-2-3-0-3-2-3-0-3-2-3-0-3-2-3-2-0----------------
E  ------------------------------------------------------------------------------------------------------------------------

e  ------------------------------------------------------------------------------------------------------------------------
B ------------------------------------------------------------------------------------------------------------------------
G ------------------------------------------------------------------------------------------------------------------------
D -3-2--3-0--3-2-0--------4-0---4-5--4-3-4-2/--------------------------------------------------------------------
A ---------------------3-0------------------------------5-4-5-2-5-4-5-2-5-4-5-------------------------------------
E ------------------------------------------------------------------------------------------------------------------------

e -----------------------------------------------------------------------------------------------------------------------
B -----------------------------------------------------------------------------------------------------------------------
G------------------------------------------------------------------------------------------------------------------------
D -----------------------------------------------------------------------------------------------------------------------
A ------------------------------------------------------------------------------------------------------------------------
E --5-4-5-2-5-2-4-5-2-5-4-5-2-5-4-5-2------------------------------------------------------------------------------

(I didn't do Jack's solo because I couldn't quite catch it and it could be lived without guitar-wise. Also it easier to just sing that part. J)

e -------------------------------------------------------------------------------------------------------------------------
B -------------------------------------------------------------------------------------------------------------------------
G ---------------------------------------------------------------------------5-4-5-2-5-4-5-2-5-4-5-----------------
D --5-4-5-2-5-4-5-2-5-4-5-2-5-4-5-4-2---------------3-2 ----3-2-----------------------------------------------
A -----------------------------------------------------------------------------------------------------------------------
E ------------------------------------------------------------------------------------------------------------------------

e ------------------------------------------------------------------------------------------------------------------------
B ------------------------------------------------------------------------------------------------------------------------
G -------------------------------------------------------------------------------------4-5-4-2--------------------------
D ---3-2-3-0-3-2-3-0-3-2-3-0-3-2-3-0--0-0-2-3-4-5-6-7-7-7-6-5-4--------4-5-4-2--------------------------
A ------------------------------------------------------------------------------------------------------------------------
E ------------------------------------------------------------------------------------------------------------------------

Enjoy 



Добавлено: 16.10.2013
Другие материалы по этой песне:
  • Аккорды и текст

Страница создана 16.10.2013
http://primanota.ru/misc-soundtrack/nightmare-before-christmas-making-christmas-2-chords.htm
Привет, Гость.
Предлагаем пройти революционный курс по гитаре.
Подарок от PrimaNota.Ru, забирай!