PrimaNota.ru - самый крупный в мире бесплатный архив песенных текстов, аккордов, табулатур и нот


Misc Soundtrack - Schindlers list jerusalem - таба

Регистрация Запомнить меня
Войти через:  Facebook Google Twitter Vk Yandex Mail.ru

Misc Soundtrack - Schindlers list jerusalem - таба

Печатать
Просмотров: 122


From: kharding@lamar.ColoState.EDU (Karol Harding)

Y'RUSHALAYEM SHEL ZAHAV (JERUSALEM OF GOLD)
From Schindler's list
tempo: 3/4
Tab by Karol Henderson Harding 1994
      D7                       Gm      
   **
E|--5-|-5-5-5----------5-|-5---3------3-|-3--6--5--3---|
B|----|-----7------------|-----3--------|-3--------3---|
G|----|-----5------------|-----3--------|-3--------2---|
D|----|-0------0--0------|-0---0--------|-0-----4--2---|
A|----|------------------|--------------|--------------|
E|----|------------------|--------------|--------------|

   D7            Dm5             Gm            Dm     A7
 
E|-2---------5-|-5-5--5-5--6-5-|-5--3--6--5-3-|-1-----0------|
B|-1-----------|------6--------|--------------|-3-----2------|
G|-2-----------|------7--------|--------------|-2-----0------|
D|---0---------|-0----7----5---|-0------------|-0--------2---|
A|--0----------|---------------|--------------|---0---0------|
E|-------------|---------------|--------------|--------------|
 ______________________________  CHORUS:
 |1. Dm         | 2. Dm        | Gm      C      F    
E|--1--------5--|---1----------|-3---3---3--3-|-1---1--1-1---|
B|--3-----------|---3---3--3-3-|-3------------|-1------------|
G|--2-----------|---2----------|-3------------|-2------------|
D|--0-----------|---0------0---|--------------|---------0----|
A|--------------|--------------|---------3----|-3------------|
E|--------------|----------3---|--------------|--------------|
 
   Bf            F               Dm        Am  
    
E|-6--6---6--6--|-5-5---5--5---|-10--12----8--|
B|--------------|-5-----5------|-10-----------|
G|--------------|--------------|-10-----------|
D|-5------5-----|--------------|--------------|
A|--------------|-0-----0------|--------------|
E|--------------|--------------|--------------|

**last time to to finale instead________________________________
                |              |1b.           |2b.   (to **)
E|-8---5---3----|--1---0-------|---1----3--3-3|---1---------|
B|-----5--------|--3---2-------|---3----------|---3---------|
G|-----5--------|--2---0-------|---2-------0--|---2---------|
D|--------------|--0-----2-----|---0----------|---0---------|
A|--------------|------0-------|-----------3--|-------------|
E|--------------|--------------|--------------|-------------|

**FINALE:                               *7optional
                                            *
E|-8--5-----3-5-|-6--8--10-----|-12----10----||
B|----5---------|-------10-----|-10----10----||
G|----5---------|-------10-----|-10----10----||
D|-7------------|----7---0-----|-10-----0----||
A|--------------|--------------|-------------||
E|--------------|--------------|-------------||

Original key: C7 Fm Cy Fm Cm G7 Cm (verse)
              Fm Bf Ef Af f Cm Gm Cm G7 Cm....(chorus)

Y'rushalayim shel Zahav  (JERUSALEM OF GOLD)
 
By Naomi Shemer
With two different translations:

*#1 translation by Rabbi Jack Gabriel

Y'rushalayim shel Zahav                                    Jerusalem of Gold

Dm                Gm
avir ..
          (A7)D7
v'rei'ach ora-nim                                  
                  Gm
nisa ..
          Dm A7 Dm  
im ..

(repeats above melody:)
uv'tardemat ..
shvuya ..                         
ha'ir ..
uv'liba ...                           


I walk ..
I feel ..
the ..
no ...

I dream ..
within ..
I am ..
I share ...

CHORUS:
Dm      Gm    C       F
y'rusha-lyaim ..
          Bb/Gm         F
v'shel ..
       Dm       Am       Dm A7 Dm
halo ...         

Yerusha'layim..
you're ..
Your ..
I need ..


I cry ..
Your ..
Your ..
who ..

the ..
in ..
It ..,
and ..

------------------------------------------------


Добавлено: 26.08.2013
Другие материалы по этой песне:
  • Аккорды и текст

Страница создана 26.08.2013
http://primanota.ru/misc-soundtrack/schindlers-list-jerusalem-chords.htm
Привет, Гость.
Предлагаем пройти революционный курс по гитаре.
Подарок от PrimaNota.Ru, забирай!