PrimaNota.ru - самый крупный в мире бесплатный архив песенных текстов, аккордов, табулатур и нот


Misc Soundtrack - Nadias Theme - бас-таба

Регистрация Запомнить меня
Войти через:  Facebook Google Twitter Vk Yandex Mail.ru

Misc Soundtrack - Nadias Theme - бас-таба

Печатать
Просмотров: 28
---------------------------------------------------------------------
             Nadia's Theme - The Young and the Restless
---------------------------------------------------------------------
Tabbed by: RagnaarMN
Tuning: Standard
One flat

Piano plays high notes on beat 1 bar 3 and beats 3 and 4 bar 4

G|----------------|----------------|----------------|----------------|
D|----------------|----------------|----------------|----------------|
A|1---------------|1---------------|1---------------|1---------------|
E|------------3---|------------3---|------------3---|------------3---|

G|----------------|----------------|----------------|----------------|
D|----------------|----------------|----------------|----------------|
A|0---------------|0---------------|--------1-------|--------1-------|
E|--------1-------|--------1-------|3---------------|3---------------|

G|----------------|----------------|----------------|----------------|
D|--------0-------|--------0-------|----------------|----------------|
A|----------------|----------------|1---------------|1---------------|
E|1---------------|1---------------|--------3-------|--------3-------|

G|----------------|----------------|----------------|----------------|
D|----------------|----------------|----------------|----------------|
A|0---------------|0---------------|--------1-------|--------1-------|
E|--------1-------|--------1-------|3---------------|3---------------|

G|----------------|----------------|----------------|----------------|
D|--------0-------|--------0-------|----------------|----------------|
A|----------------|----------------|3-----3-3-------|3-----3-3-------|
E|1---------------|1---------------|------------3---|------------3---|

G|----------------|----------------|----------------|----------------|
D|----------------|----------------|----------------|----------------|
A|------3---------|------3---------|1-----1-----1---|0-----0-----0---|
E|1-------1---1---|1-------1---1---|--------1-------|--------0-------|

G|----------------|----------------|----------------|----------------|
D|----------------|----------------|------0---------|------0---------|
A|1-----1-----1---|1-----1-1-------|----------------|----------------|
E|--------1-------|----------------|3-------3---3---|3-------3---3---|

G|----------------|----------------|----------------|----------------|
D|----------------|----------------|1-------1---1---|1-------1---1---|
A|------3---------|------3---------|------1---------|------1---------|
E|1-------1---1---|1-------1---1---|----------------|----------------|

G|----------------|----------------|----------------|----------------|
D|0-------0---0---|0-------0---0---|----------------|----------------|
A|------0---------|------0---------|3-------3-------|3-------3-------|
E|----------------|----------------|------3-----3---|------3-----3---|

G|----------------|----------------|----------------|----------------|
D|----------------|----------------|----------------|----------------|
A|------3---------|------3---------|1-----1-----1---|0-----0-----0---|
E|1-------1---1---|1-------1---1---|--------1-------|--------0-------|

G|----------------|----------------|----------------|----------------|
D|----------------|----------------|------0---------|------0---------|
A|1-----1-----1---|1-----1-1-------|----------------|----------------|
E|--------1-------|----------------|3-------3-------|3-------3-------|

G|----------------|----------------|----------------|----------------|
D|----------------|----------------|1-------1-------|1-------1-------|
A|------3---------|------3---------|------1---------|------1---------|
E|1-------1-------|1-------1-------|----------------|----------------|

G|----------------|----------------|----------------|----------------|
D|0-------0-------|0-------0-------|0---------------|----------------|
A|------0---------|------0-------0-|----------------|----------------|
E|----------------|----------------|----------------|----------------|

Google search, "1976 Originally Cotton's Dream" for the matching 
version.

=====================================================================
Добавлено: 06.05.2016
Другие материалы по этой песне:
  • Аккорды и текст

Страница создана 06.05.2016
http://primanota.ru/misc-soundtrack/nadias-theme-chords.htm
Привет, Гость.
Предлагаем пройти революционный курс по гитаре.
Подарок от PrimaNota.Ru, забирай!