PrimaNota.ru - самый крупный в мире бесплатный архив песенных текстов, аккордов, табулатур и нот


Misc Soundtrack - The Last Unicorn - Haggards Unicorns - бас-таба, видео

Регистрация Запомнить меня
Войти через:  Facebook Google Twitter Vk Yandex Mail.ru

Misc Soundtrack - The Last Unicorn - Haggards Unicorns - бас-таба, видео

Печатать
Просмотров: 59
Уроки эстрадного вокала в Санкт-Петербурге
-------------------------------------------------------------------------------
                             Haggards Unicorns
-------------------------------------------------------------------------------
Tabbed by: ghidorah89

Thats the main melodies, you heard, transcribed for bass notes.

G|-----------------------|----------------------------------|-----------------
D|--8+----10--12-10-12+--|--13--12---------12-10------------|-----------10----
A|-----------------------|----------10--10-------12-10-12+--|--10-12-13----13-
E|-----------------------|----------------------------------|-----------------

G|----------------|  |-------------------------------------------------------|
D|----------------|2x|-----------10-12-13-13+--15--10--12~--13------10--(12)-|
A|--12~--10--10+--|  |--10-12-13--------------------------------13-----------|
E|----------------|  |-------------------------------------------------------|

G|------------------------------------------|--------------------------------|
D|------7--8--7--5--------7--5--------------|--------------------------------|
A|--5~--------------5--5--------8--6--3-----|--------------------------------|
E|---------------------------------------3--|--8h10h11-8h10h11-8h10h11-------|

G|----------12+--|--------------------------13-12--|-------------------------|
D|------15+------|--10-12-13-12-10-12-13-12--------|--8+---------------------|
A|--13+----------|---------------------------------|----------8+-------------|
E|---------------|---------------------------------|------------------10+----|

G|--12-------12-12-----12-12-----12-13--12--11-10--|--------------------------
D|--12----13-12-12--13-12-12--13-12-13--12--11-10--|--7----7-7---7-7----7--8--
A|--10----13-10-10--13-10-10--13-10-11--10--9--8---|-----8-----8-----8--------
E|--------11--------11--------11-------------------|--------------------------

G|-----------|--12-----12-12-----12-12-----12-13--12--11--10--|---------------
D|--7--5-----|------13--------13--------13--------------------|---------------
A|--------7--|------------------------------------------------|--(0)-12-----12
E|-----------|------------------------------------------------|----------13---

G|---------------------------------------|--17-----17-17-----17-17-----17--18-
D|---------------------------------------|------18--------18--------18--------
A|--12-----12-12-----12--13--12--10------|------------------------------------
E|------13--------13-----------------12--|------------------------------------

G|--17--16--15--|-----------------------------------------x-x-x----x-x-x-----|
D|--------------|-----------------------------------------x-x-x----x-x-x-----|
A|--------------|--6--5--6-6--5--6-6--5--6-6--5--4----3+--x-x-x----x-x-x-----|
E|--------------|--0--------------------------------------x-x-x----x-x-x-----|


| /  slide up
| \  slide down
| h  hammer-on
| p  pull-off
| ~  vibrato
| +  harmonic
| x  Mute note
===============================================================================
Добавлено: 06.05.2016
Другие материалы по этой песне:
  • Аккорды и текст

Страница создана 06.05.2016
http://primanota.ru/misc-soundtrack/last-unicorn-haggards-unicorns-chords.htm
Привет, Гость.
Предлагаем пройти революционный курс по гитаре.
Подарок от PrimaNota.Ru, забирай!