PrimaNota.ru - самый крупный в мире бесплатный архив песенных текстов, аккордов, табулатур и нот


Misc Computer Games - Banjo Kazooie - Jinjo Village - бас-таба, видео

Регистрация Запомнить меня
Войти через:  Facebook Google Twitter Vk Yandex Mail.ru

Misc Computer Games - Banjo Kazooie - Jinjo Village - бас-таба, видео

Печатать
Просмотров: 64
Новый альбом группы 'Черный Кузнец' по культовому сериалу 'Сверхъестественное'!
Banjo Kazooie - Jinjo Village (Composed by Grant Kirkhope)

Tabbed by: Ash (XxThreeCheersxX)
E-mail: burdickash@gmail.com

Tuning: Standard

NOTE: This is the melody for the song, not the rhythm section.  If there's interest, I'll tab it out as well.

MELODY

Part I
G|-5--------5--------------5--------5--7--------5--------5-------------------------------|
D|----5--5-----7----5---------5--5-----------------5--5-----7----5----------5------------|
A|--------------------8--------------------------------------------8----7-8---8-7-5------|
E|----------------------------------------------------------------------------------8----|

G|-5--------5--------------5--------5--7--------5--------5------------------5-4-5-7-5----|
D|----5--5-----7----5---------5--5-----------------5--5-----7----5--------5--------------|
A|--------------------8--------------------------------------------8----7----------------|
E|---------------------------------------------------------------------------------------|

Part II (played faster)
G|------------0-------------------------------0---------------------|
D|---0-2-3--3---3-2-0--2----------0-2-3--3--3---3-2-0--1-0----------|
A|-3----------------------3-----3--------------------------3--------|
E|---------------------------3--------------------------------------|

G|----------0--2-----------------------0----2--4--|
D|----1--1----------3---------------0-------------|
A|-1------------------3--0-----0-2----------------|
E|--------------------------3---------------------|

G|------------0-------------------------------0---------------------|
D|---0-2-3--3---3-2-0--2----------0-2-3--3--3---3-2-0--1-0----------|
A|-3----------------------3-----3--------------------------3--------|
E|---------------------------3--------------------------------------|

G|----------0--2-----------------------0-----------|
D|----1--1----------3---------------0-----0-----0--|
A|-1------------------3--0-----0-2-----------2-----|
E|--------------------------3----------------------|

The rest of the song is just Parts I and II being played on various instruments, but there is one spot
where it changes...

Part III
G|-------------------------------------------------|
D|----3--3-3-3-------1-3--3------------------------|
A|-3------------3--4-----------3--3-3-3--0---------|
E|------------------------------------------4-3-1--|

G|-----------------------------0--0-0-0-----0-----------|
D|----3--3-3-3-------1-3--3--------------0--------------|
A|-3------------3--4---------------------------------3--|
E|---------------------------------------------3--3-----|

G|-------------------------------------------------|
D|----3--3-3-3-------1-3--3------------------------|
A|-3------------3--4-----------3--3-3-3--0---------|
E|------------------------------------------4-3-1--|

G|------------------------------------2-----0----------|
D|----3--3-3-3-------1-3--3----4--4-4----4-----3--2--0-|
A|-3------------3--4-----------------------------------|
E|-----------------------------------------------------|

Happy playing!

| /  slide up
| \  slide down
| h  hammer-on
| p  pull-off
| ~  vibrato
| +  harmonic
| x  Mute note
===============================================================================
Добавлено: 17.12.2017
Другие материалы по этой песне:
  • Аккорды и текст

Страница создана 17.12.2017
http://primanota.ru/misc-computer-games/banjo-kazooie-jinjo-village-chords.htm
Привет, Гость.
Предлагаем пройти революционный курс по гитаре.
Подарок от PrimaNota.Ru, забирай!