PrimaNota.ru - самый крупный в мире бесплатный архив песенных текстов, аккордов, табулатур и нот


Misc Computer Games - World Of Warcraft - Invincible - таба, видео

Регистрация Запомнить меня
Войти через:  Facebook Google Twitter Vk Yandex Mail.ru

Misc Computer Games - World Of Warcraft - Invincible - таба, видео

Печатать
Просмотров: 310
Voice
     W                   W                   W                 
E||-------------------|-------------------|-------------------|
B||-------------------|-------------------|-------------------|
G||-------------------|-------------------|-------------------|
D||-------------------|-------------------|-------------------|
A||-------------------|-------------------|-------------------|
E||-------------------|-------------------|-------------------|


  W                   Q.     E  Q    Q       Q.     E  H         
-------------------|------------0---------|--2------------------|
-------------------|--2------4-------4----|---------4--2--------|
-------------------|----------------------|---------------------|
-------------------|----------------------|---------------------|
-------------------|----------------------|---------------------|
-------------------|----------------------|---------------------|


  Q.     E  H           Q.     E  H           Q.     E  Q    Q     
--0------0-----------|--2------------------|--4------4--2----4----|
------------4--------|---------4--2--------|----------------------|
---------------------|---------------------|----------------------|
---------------------|---------------------|----------------------|
---------------------|---------------------|----------------------|
---------------------|---------------------|----------------------|


  Q    E  E  H           E  E  Q    E  E  Q       E  E  E  E   H         
--5----5--------------|--4--4--2----6--6--4----|--6--4--6--7--11--------|
----------5--4--------|------------------------|------------------------|
----------------------|------------------------|------------------------|
----------------------|------------------------|------------------------|
----------------------|------------------------|------------------------|
----------------------|------------------------|------------------------|


  H         H           H        H           H        H         
--9------------------|--------------------|--------------------|
-----------11--------|-----------9--------|--------------------|
---------------------|--------------------|-----------9--------|
---------------------|--------------------|--------------------|
---------------------|--------------------|--------------------|
---------------------|--------------------|--------------------|


  W                   W                   W                 
-------------------|-------------------|-------------------|
-------------------|-------------------|-------------------|
--8----------------|-------------------|-------------------|
-------------------|-------------------|-------------------|
-------------------|-------------------|-------------------|
-------------------|-------------------|-------------------|


  Q.     E  Q    Q       E  E  H.              Q.     E  Q    Q     
--0------0--2----0----|---------------------|--0------0--2----0----|
----------------------|--4--2--0------------|----------------------|
----------------------|---------------------|----------------------|
----------------------|---------------------|----------------------|
----------------------|---------------------|----------------------|
----------------------|---------------------|----------------------|


  W                   Q.     E  Q    Q       E  E  H        Q     
-------------------|--5------5--7----5----|--4--2--0--------4----|
--4----------------|----------------------|----------------------|
-------------------|----------------------|----------------------|
-------------------|----------------------|----------------------|
-------------------|----------------------|----------------------|
-------------------|----------------------|----------------------|


  H        H           W                   Q.     E  Q    Q     
--9--------7--------|--9----------------|------------0---------|
--------------------|-------------------|----------------------|
--------------------|-------------------|--6------8-------8----|
--------------------|-------------------|----------------------|
--------------------|-------------------|----------------------|
--------------------|-------------------|----------------------|


  Q.     E  H           Q.     E  H           Q.     E  H         
---------------------|---------------------|--2------------------|
--7------------------|--5------5--4--------|---------4--2--------|
---------8--6--------|---------------------|---------------------|
---------------------|---------------------|---------------------|
---------------------|---------------------|---------------------|
---------------------|---------------------|---------------------|


  Q.     E  Q    Q       Q    E  E  H           E  E  Q    E  E  Q     
--4------4--2----4----|--5----5--------------|--4--4--2----6--6--4----|
----------------------|----------5--4--------|------------------------|
----------------------|----------------------|------------------------|
----------------------|----------------------|------------------------|
----------------------|----------------------|------------------------|
----------------------|----------------------|------------------------|


  E  E  E  E   H           H         H           H        H         
--6--4--6--7--11--------|--9------------------|--------------------|
------------------------|-----------11--------|-----------9--------|
------------------------|---------------------|--------------------|
------------------------|---------------------|--------------------|
------------------------|---------------------|--------------------|
------------------------|---------------------|--------------------|


  H        H           W                   W                 
--------------------|-------------------|-------------------|
--------------------|-------------------|-------------------|
-----------9--------|--8----------------|-------------------|
--------------------|-------------------|-------------------|
--------------------|-------------------|-------------------|
--------------------|-------------------|-------------------|


  W                    Q.      E   Q     Q        E  E  H.            
-------------------|--12------12--14----12----|--11--9--7------------|
-------------------|--------------------------|----------------------|
-------------------|--------------------------|----------------------|
-------------------|--------------------------|----------------------|
-------------------|--------------------------|----------------------|
-------------------|--------------------------|----------------------|


   Q.      E   Q     Q        W                    Q.      E  Q    Q     
--12------12--14----12----|--11----------------|--------------7----5----|
--------------------------|--------------------|--10------10------------|
--------------------------|--------------------|------------------------|
--------------------------|--------------------|------------------------|
--------------------------|--------------------|------------------------|
--------------------------|--------------------|------------------------|


  E  E  H        Q       H        H           W                  
--4--2--0--------4----|--9--------7--------|--9----------------||
----------------------|--------------------|-------------------||
----------------------|--------------------|-------------------||
----------------------|--------------------|-------------------||
----------------------|--------------------|-------------------||
----------------------|--------------------|-------------------||




Duration Legend
---------------
W - whole
H - half
Q - quarter
E - 8th
S - 16th
T - 32nd
X - 64th
. - note dotted
|-n-|  - n-tuplets


Tablature Legend
----------------
L - tied note
x - dead note
g - grace note
(n) - ghost note
> - accentuded note
NH - natural harmonic
AH - artificial harmonic
TH - tapped harmonic
SH - semi harmonic
PH - pitch harmonic
h - hammer on
p - pull off
b - bend
br - bendRelease
pb - preBend
pbr - preBendRelease
brb - bendReleaseBend
\n/ - tremolo bar dip
\n - tremolo bar dive
-/n - tremolo bar Release up
/n\ - tremolo bar inverted dip
/n - tremolo bar return
-\n - tremolo bar Release down
S - shift slide
s - legato slide
/ -  slide into from below or out of upwards
\ -  slide into from above or out of downwards
~ - vibrato
W - wide vibrato
tr - trill
TP - tremolo picking
T - tapping
S - slap
P - pop
< - fade in
^ - brush up
v - brush down
Добавлено: 08.09.2013
Другие материалы по этой песне:

Страница создана 05.06.2012
http://primanota.ru/misc-computer-games/world-of-warcraft-invincible-chords.htm
Привет, Гость.
Предлагаем пройти революционный курс по гитаре.
Подарок от PrimaNota.Ru, забирай!