PrimaNota.ru - самый крупный в мире бесплатный архив песенных текстов, аккордов, табулатур и нот


Misc Computer Games - World Of Warcraft - Song Of Elune - таба, видео

Регистрация Запомнить меня
Войти через:  Facebook Google Twitter Vk Yandex Mail.ru

Misc Computer Games - World Of Warcraft - Song Of Elune - таба, видео

Печатать
Просмотров: 132
-------------------------------------------------------------------------------
          Song of Elune - Misc computer games (World of Warcraft)
-------------------------------------------------------------------------------
Tabbed by: Tritoch21
E-mail:anderzolzzon@hotmail.com

Tuning: Normal


e|---------------------------------------------------------------------------|
B|---------------0------------------------0----------------------------------|
G|------------0-----0------------------0-----0-------------------------------|
D|---------2-----------2------------2-----------2----------------------------|
A|------2-----------------2------2-----------------2-------------------------|
E|---0-----------------------0-----------------------------------------------|



e|----------------------------------------------------0----------------------|
B|---------------0------------------------0-----------------------0----------|
G|------------0-----0------------------0-----0-----------------0-----0-------|
D|---------2-----------2------------2-----------2-----------2-----------2----|
A|------2-----------------2------2-----------------2-----2-----------------2-|
E|---0-----------------------0------------------------0----------------------|




e|--2-----------3--------------------------2-----------------------2---------|
B|--------------0--------------4--------4-----4-----------------4-----4------|
G|-----------0-----0-----------------4-----------4-----------4-----------4---|
D|--------2-----------2-----------4-----------------4-----4-----------------4|
A|-----2-----------------2-----2-----------------------2---------------------|
E|--0------------------------------------------------------------------------|


                                                      

e|--0-----------------------2-----------3-------------5----------------------|
B|--------------0-----------------------0-------------------------5----------|
G|-----------0-----0-----------------0-----0-------------------5-----5-------|
D|--------2-----------2-----------2-----------2-------------7-----------7----|
A|-----2-----------------2-----2-----------------2-------7-----------------7-|
E|--0-----------------------0-------------------------5----------------------|


                                              

e|------------------------0---5------------------------7-----------8---------|
B|--------------5-------------------------6------------------6--------6-----6|
G|-----------5-----5----------------5--------5-----0------5-----5--------5---|
D|--------7-----------7----------7-----7--------7------3---------------------|
A|-----7----------------------8----------------------------------------------|
E|--5------------------------------------------------------------------------|




e|--0-----------0------------------------0------------------------0----------|
B|-----------1------3-----0-----------3-----3---------1--------1-----1-------|
G|--------0------------0-----------1-----------1------------2-----------2----|
D|-----2------------------------2-----------------2------2-----------------2-|
A|--3------------------------2------------------------0----------------------|
E|---------------------------------------------------------------------------|




e|--------------0------------------------------------------------------------|
B|-----------1-----1---------------------------------------------------------|
G|--------2-----------2------------------------------------------------------|
D|-----2-----------------2---------------------------------------------------|
A|--0------------------------------------------------------------------------|
E|---------------------------------------------------------------------------|




e|---------------------------------------------------------------------------|
B|---------------0------------------------0-----------------------0----------|
G|------------0-----0------------------0-----0-----------------0-----0-------|
D|---------2-----------2------------2-----------2-----------2-----------2----|
A|------2-----------------2------2-----------------2-----2-----------------2-|
E|---0-----------------------0------------------------0----------------------|




e|--------------------------0-----------------------------------0-----2------|
B|--------------0-----0-----------------0-----------------0-----0------------|
G|-----------0-----0-----------------0-----0-----------------0-----0---------|
D|--------2-----------2-----------2-----------2-----------2-----------2------|
A|-----2-----------------2-----2-----------------2-----2-----------------2---|
E|--0-----------------------0-----------------------0------------------------|




e|---3-----2-----0-----------------------0-----------------------------------|
B|---------------0-----3-----1----------------3-----0-----------0------------|
G|------------0-----0--------------0-------------------------0-----0---------|
D|---------2-----------2--------2-----2----2-----2--------2-----------2------|
A|------2-----------------2--3-------------------------2-----------------2---|
E|---0----------------------------------------------0------------------------|




e|---------------------------------------------------------------------------|
B|--------------0-----------------------0-----------------------0------------|
G|-----------0-----0-----------------0-----0-----------------0-----0---------|
D|--------2-----------2-----------2-----------2-----------2-----------2------|
A|-----2-----------------2-----2-----------------2-----2-----------------2---|
E|--0-----------------------0-----------------------0------------------------|


                                                    

e|--------------0----------------0-------------------------------------------|
B|--------1--------1-----------1--------------0------1-----0-----------------|
G|--2--------2--------2-----------------2------------------------2-----0-----|
D|-----2-----------------------------2-----2-----2---------3-----------3-----|
A|--0----------------------0----------------------------3-----3-----3-----3--|
E|-----------------------0---------------------------1-----------1-----------|




e|--------0-------------0----------------------------------------------------|
B|----------------4-----------0-----------0-----------------------0----------|
G|----------------------4--------------0-----0-----------------0-----0-------|
D|--3-----3----------4-----4--------2-----------2-----------2-----------0----|
A|-----3-----3----2--------------2-----------------2-----2-----------------2-|
E|--1-------------------------0-----------------------0----------------------|


                                                    

e|---------------------------------------------------------------------------|
B|--------------0-----------------------0-------------------------7----------|
G|-----------0-----0-----------------0-----0-------------------8-----8-------|
D|--------2-----------2-----------2-----------2-------------9-----------9----|
A|-----2-----------------2-----2-----------------2------9------------------9-|
E|--0-----------------------0------------------------7-----------------------|

   

e|--------------------------0------------------------------------------------|
B|--------------8-----------------------0-----------------------0------------|
G|-----------8-----8-----------------0-----0-----------------0-----0---------|
D|--------7-----------9-----------2-----------2-----------2-----------2------|
A|-----9-----------------9-----2-----------------2-----2-----------------2---|
E|--7-----------------------0-----------------------0------------------------|




e|------------------------------0--------------------------------------------|
B|---------------0--------------0--------------------------------------------|
G|------------0-----0-----------0--------------------------------------------|
D|---------2-----------2--------2--------------------------------------------|
A|------2-----------------2-----2--------------------------------------------|
E|---0--------------------------0--------------------------------------------|
Добавлено: 29.10.2013
Другие материалы по этой песне:

Страница создана 27.03.2012
http://primanota.ru/misc-computer-games/world-of-warcraft-song-of-elune-chords.htm
Привет, Гость.
Предлагаем пройти революционный курс по гитаре.
Подарок от PrimaNota.Ru, забирай!