PrimaNota.ru - самый крупный в мире бесплатный архив песенных текстов, аккордов, табулатур и нот


Misc Computer Games - Secret Of Mana Underground Palace - таба, видео

Регистрация Запомнить меня
Войти через:  Facebook Google Twitter Vk Yandex Mail.ru

Misc Computer Games - Secret Of Mana Underground Palace - таба, видео

Печатать
Просмотров: 110
"Underground Palace"
	from Secret of Mana

Hello out there, this is my transcription of the bass line from the 
Underground Palace theme. I play it on guitar even though it's for bass, and 
that's what this tab is for.

Standard Tuning

Legend: ~ - Hold
	h - Hammer on

Verse:

E|------------------------
B|------------------------
G|------------------------	Play this two times then...
D|------------------0-----
A|---0-----2-0--------2~--
E|-----3~-------0-2-------

Chorus:

E|----------------------------
B|----------------------------
G|----------------------------	...this two times.
D|----------2-------0---------
A|---3~-3h5---3---0---2-------
E|--------------3-------3-0---

That's about it for this...

Questions, Comments? E-Mail at tje2004@hotmail.com
     
Добавлено: 27.06.2013
Другие материалы по этой песне:
  • Аккорды и текст

Страница создана 27.06.2013
http://primanota.ru/misc-computer-games/secret-of-mana-underground-palace-chords.htm
Привет, Гость.
Предлагаем пройти революционный курс по гитаре.
Подарок от PrimaNota.Ru, забирай!