PrimaNota.ru - самый крупный в мире бесплатный архив песенных текстов, аккордов, табулатур и нот


Misc Computer Games - Street Fighter Ex - таба, видео

Регистрация Запомнить меня
Войти через:  Facebook Google Twitter Vk Yandex Mail.ru

Misc Computer Games - Street Fighter Ex - таба, видео

Печатать
Просмотров: 85
Street Fighter EX (Arika-Capcom 1996)
Theme music composed by Shinji Hosoe, Ayako Saso and 
Takayuki Aihara.

Transcribed by Richard from the BGM test of the PlayStation
version of SF EX Plus. These are fragments from all the main
character riffs... The melodies are originally on a variety
of real instruments, including saxophones, electric guitars 
and pianos.

"Amusementive Crime" Skullomania
E:---------------- -?-4b-9b-16b-9b- ---------------------4---------
b:---------------- ---------------- ---------------4-5-7---7-5-4---
g:--5--4-------5-- ---------------- --5-4-5--4-5-7---------------4-
d:--5--4-------5-- ---------------- -------------------------------
a:--3--2-0-5-2-3-- ---------------- -------------------------------
e:---------------- ---------------- -------------------------------

"Arabesque" Pullum Purna
E:--2-4-4-4-s6--2-2-4--2-3--2-1-2-2-2-4-2--
b:-----------------------------------------
g:-----------------------------------------
d:-----------------------------------------

"Cold Pipe" Zangief
E:--------------12- -------------4-----------4-6-- --------
b:----------------- --7-6-2--7-6----7-6-2--7------ --------
g:--3-------------- ------------------------------ -----3--
d:--------2-2-2---- ------------------------------ --5--3--
a:----2-2-2-2-2---- ------------------------------ --5--1--
e:----0-0-0-0-0---- ------------------------------ --3-----

"Garnet Sky" C Jack
g:--7--7--7-8-7-------------------------- -------------------------
d:----------------3-3---3-5-3-2---1-3-3-- -------------------------
a:--------------3-----3---------3-------- ---1-2---1-2-1-0---0-1-1-
e:--------------------------------------- -2-----2---------2-------

"Irreconcilably" Bison (note tuning)
e:-------------------- ----- -6-4-----4---
b:-------------------- ----- -----4-6---4-
g:-------------------- -?-3- -------------
d:---------------4-2-- ----- -------------
a:-0-2-2-0-0-2-2-2-0-- ----- -------------
d:-0-2-2-0-0-2-2------ ----- -------------

"Light Guardian" Ken M
E:------------- ------------------4-2- ---------12-13-12-10--5-5-4-
b:------------- -5-4-5-4-2--5-4-5---5- ----9-10--------------5-5-4-
g:------------- ---------------------- -10-------------------6-6-5-
d:------------- ---------------------- ----------------------7-7-6-
a:-3--6-6--3x-- ---------------------- ----------------------7-7-6-
e:-1--4-4--1--- ---------------------- ----------------------5-5-4-

"Rising Dragoon" Ryu
E:--------------------- ----------7------9-7---
b:--------------------- ----9-8-9----8-9-----9-
g:--------------------- -----------------------
d:--10--9--7---10------ -7---------------------
a:--8---7--5---8--8-6-- -5---------------------
e:----------------6-4?- -----------------------

"Cherry Blossom In Full Bloom" Hokuto
g:-----------------------four-times--- --------------------------------
d:--------------4--6-4---------------- -5-3-5-0-3-0------------0-------
a:---6-4-6--4-6--------6-4-6-4---4---- ------------3-2-------3---3-2-3-
e:-4---------------------------4---2-- ----------------3-1-3-----------

"Spinning Bird" Chun-Li
g:------------------------ -----------2----0-2---0-2-4------------- -0-
d:--5-5-7--8-8-10--12-10-- -4-4-2-2-4---4------4-------4-2-0------- -0-
a:--5-5-7--9-9-11--12-11-- ----------------------------------2----- -0-
e:--3-3-5--7-7-9---10-9--- ------------------------------------3-1- ---

"Strange Sunset" Guile
b:------5---- 5-----6-----6-- ------------------
g:--6-----6-----8-----8------ ------------------
d:----7-----7-----8-----8---- ------------------
a:--------------------------- --6-6--4--6--3-4--
e:--------------------------- --4-4--2--4--1-2--

"Stronger" Garuda
E:--1--4--1--4--2-2--1--2-4-1--2-4-1--4-2-1-6--
b:--1--4--1--4--2-2----------------------------
g:--2--5--2--5--3-3-------------------then-----
d:--3--6--3--6--4-4------------------repeat----
a:--3--6--3--6--4-4--------------------up------
e:--1--4--1--4--2-2------------------three-----

"Under Tube" Doctrine Dark
E:------------------ -10---------- -------------
b:------------------ -10---------- -------------
g:------------------ -11---------- -------------
d:------------------ ------------- -------------
a:--0-0-0-0-0h1s2--- -3-3-3-1-3-1- -5-5-5-3-5-3-
e:------------------ ------------- -------------

"Precious Heart" Sakura K
g:------------------------- --------------0-1- -0---------------------
d:--0-2-3--3-(6)-4-3--1-1-- -0-1-2-??-1-2----- -4-4-6-4-3-----------1-
a:------------------------- ------------------ -----------3-4-4-3-4---
e:------------------------- ------------------ -----------------------

"Heat Wind" Darun Mister
e:------------------------------ -------7-5-3-2-3--5-7------9-8-7-5-3-
b:--6--7------------------------ -5-7-8----------------5-7------------
g:--6--7---6-6-7-5--6-6-6-7x-5-- -------------------------------------
d:--6--7------------------------ -------------------------------------
a:--4--5------------------------ -------------------------------------
e:------------------------------ -------------------------------------

That's it. Let me know if you disagree with any of this, or if 
you have figured out any other songs... (email address changes, 
so check
http://www.geocities.com/kesmaster.geo
for current contact details). Hope you enjoy the tunes!
     
Добавлено: 16.11.2013
Другие материалы по этой песне:
  • Аккорды и текст

Страница создана 16.11.2013
http://primanota.ru/misc-computer-games/street-fighter-ex-chords.htm
Привет, Гость.
Предлагаем пройти революционный курс по гитаре.
Подарок от PrimaNota.Ru, забирай!