PrimaNota.ru - самый крупный в мире бесплатный архив песенных текстов, аккордов, табулатур и нот


Misc Computer Games - Policenauts - Old La 2040 - таба, видео

Регистрация Запомнить меня
Войти через:  Facebook Google Twitter Vk Yandex Mail.ru

Misc Computer Games - Policenauts - Old La 2040 - таба, видео

Печатать
Просмотров: 114
-------------------------------------------------------------------------------
                             Old L.A. 2040 - Policenauts
-------------------------------------------------------------------------------
Tabbed by: Thomas N.
E-mail:

Tuning: Standart
RIFF 1 [PART 1]
e|---------------------------------------------------------------------------|
B|---------------------------------------------------------------------------|
G|---------------------------------------------------------------------------|
D|-----------------7~--------9-7~-5~----5---5-7~-----------------------------|
A|-------7-10~--7-------5-7----------7---7------5/7~-5~----------------------|
E|-7-10----------------------------------------------------------------------|
RIFF 1 [PART 2]x3
e|---------------------------------------------------------------------------|
B|---------------------------------------------------------------------------|
G|---------------------------------------------------------------------------|
D|-------------7~------9-7~-5~-----5---5-7~----------------------------------|
A|----7-10~--7----5-7-----------7----7-------5/7~-5-5------------------------|
E|-10------------------------------------------------------------------------|
RIFF 2 [PART 1]
e|---------------------------------------------------------------------------|
B|---------------------------------------------------------------------------|
G|------9--------------------------------------------------------------------|
D|-9-12----7~-------5~-----7~~-----------------------------------------------|
A|-------------5-7------7----------------------------------------------------|
E|---------------------------------------------------------------------------|
RIFF 2 [PART 2]
e|---------------------------------------------------------------------------|
B|---------------------------------------------------------------------------|
G|-------9-------------------------------------------------------------------|
D|-9-12-----7~---5-----7~--5-------------------------------------------------|
A|------------------7---------7~---------------------------------------------|
E|---------------------------------------------------------------------------|


************************************

| /   slide up
| \   slide down
| h   hammer-on
| p   pull-off
| ~   vibrato
| +   harmonic
| x   Mute note
| b   Bend
| pb  Pre-bend
| br  Bend release
| pbr Pre-bend release
| brb Bend release bend

************************************
Добавлено: 22.07.2013
Другие материалы по этой песне:
  • Аккорды и текст

Страница создана 22.07.2013
http://primanota.ru/misc-computer-games/policenauts-old-la-2040-chords.htm
Привет, Гость.
Предлагаем пройти революционный курс по гитаре.
Подарок от PrimaNota.Ru, забирай!