PrimaNota.ru - самый крупный в мире бесплатный архив песенных текстов, аккордов, табулатур и нот


Misc Computer Games - Rayman Legends - Castle Rock Theme - таба, видео

Регистрация Запомнить меня
Войти через:  Facebook Google Twitter Vk Yandex Mail.ru

Misc Computer Games - Rayman Legends - Castle Rock Theme - таба, видео

Печатать
Просмотров: 606
Уроки эстрадного вокала в Санкт-Петербурге
Author/Artist: Rayman Legends (Ram Jam, LeadBelly)
Title: Castle Rock (Black Betty)
Original Artist: Ram Jam

b bend
r release bend
/ slide up
\ slide down
h hammer on
p pull off
v vibrato

Standard Tuning

---|-----------|--------------------|----------------------|------------------|
---|-----------|--------------------|----------------------|------------------|
---|-----------|----------------7---|----------7--9--9-7---|------------------|
---|-----------|----------------7---|----------7--9--9-7---|------------------|
---|-2vvvvvvv--|-7--9-\---7--9------|--7----9--------------|------------------|
---|-----------|-5--7-\---5--7------|--5--7-7--------------|------------------|
    Intro G1

---|--------------------------|--|--------------------------------------------|
---|--------------------------|--|--------------------------------------------|
---|---------x-x-7--9-9--7-7--|--|--------------------------------------------|
---|---------x-x-7--9-9--7-7--|3x|--------------------------------------------|
---|-7----9-------------------|--|--------------------------------------------|
---|-5--7-7-------------------|--|--------------------------------------------|


---|--------------------------------------------------------------------------|
---|--------------------------------------------------------------------------|
---|--------------------------------------------------------------------------|
---|------------------------------------------------------------19----19------|
---|------------------------------------------------------19/21----21---------|
---|-15/17--17--17-17-15-17-15\12-10--7vv---17/19-19--19----------------------|
    Intro G2

------------------------------------------------------------------------------|
------------18p17-------------------------------------------------------------|
------------------20-19-20-19-------------------------------------------------|
--------21--------------------19-17-------------------------------------------|
--19/21-----------------------------19-17-19-17-19/21---19/21-19/21--19/21----|
------------------------------------------------------------------------------|


-----------------------------------------------------------------------------|
-----------------------------------------------------------------------------|
-----------------------------------------------------------------------------|
-----------------------------------------------------------------------------|
-21p19-17------------17--17-19p17--------------------------------------------|
-----------19p17-19---------------19p17-14p12-12p10-9p7------------------19\-|
                                         ................not sure exactly.

---|---------------------------------------------------------------------|----|
---|---------------------------------------------------------------------|----|
---|-x---------------------x---------------x-----------------------------|----|
---|-x---------------------x---------------x-----------------------------|----|
---|---9--9--9--9/12--14-----9--9--9--12-----9--9--9--14-----9---9-------|----|
---|---7--7--7--7/10--12-----7--7--7--10-----7--7--7--12---7---7---7-----|----|
    G1

---|--------------------------------------------------------------------------|
---|--------------------------------------------------------------------------|
---|-21-19--------------21-19----19h21p19--------21-19-------------19----19---|
---|-------21-19--------------21-----------------------21----7\-------21------|
---|---------------------------------------------------------5\---------------|
---|--------------------------------------------------------------------------|
    G1                                                       G2

------------------------------------------------------------------------------|
------------------------------------------------------------------------------|
------------21-19-------------19-----19-----------21-19----19h21------21-19---|
-21-19-7\---------21-19--7\-------21----21---7\---------21--------7\----------|
-------5\----------------5\------------------5\-------------------5\----------|
------------------------------------------------------------------------------|


---------------|--------------------------------------------------------------|
---------------|--------------------------------------------------------------|
----19h21------|--------------------------------------------------------------|
-21--------7\--|--------------------------------------------------------------|
-----------5\--|--------------------------------------------------------------|
---------------|--------------------------------------------------------------|


----|-------------------------------------------|--|--------------------------|
----|-------------------------------------------|--|--------------------------|
----|-------------------------------------------|--|--------------------------|
----|-7--7--7--7---9--7--9----7-9---------------|2x|--------------------------|
----|-5--5--5--5---7--7--7--9-----5-------------|--|--------------------------|
----|-------------------------------7--vv-\-----|--|--------------------------|
     G1                     Let Ring

----|-------------------------------------------------------------------------|
----|-------------------------------------------------------------------------|
----|-------------------------------------------------------------------------|
----|---------7------------------15--------------------19---------------------|
----|---5-7-9---9-7-----12-14-17----17-14-----17-19-21----21-19-20-19-20-19---|
----|-7--------------14--------------------19---------------------------------|
     G1

--------------------------------------------|--------------------|--|---------|
--------------------------------------------|--------------------|--|---------|
----------------------------17-18--19-19-19-|-19-19-21-19-19--19-|--|---------|
-17----17----18-19-20-21-21-----------------|--------------------|--|---------|
----20----20--------------------------------|--------------------|--|---------|
--------------------------------------------|--------------------|--|---------|


--|--------------19\-------------|---------------------------|---------------|
--|------------------------------|---------------------------|---------------|
--|------------------------------|---19-19-19-19-19-19-19-19-|---------------|
--|------------------------------|---------------------------|-5-/-9--9-\-5--|
--|------------------------------|---------------------------|---------------|
--|------------------------------|---------------------------|-3-/-7--7-\-3--|
   G1 Interlude                      h  h  h  h  h  h  h  h    P      P

--|19b------17b---------------19b--------|-18b---------------------------|----|
--|----20bv-----15bv-----20bv-----20bv---|-----19b-18b-------------------|----|
--|------------------21b-----------------|-------------19b-18b-----------|----|
--|--------------------------------------|---------------------21b-20bvv-|----|
--|--------------------------------------|-------------------------------|----|
--|--------------------------------------|-------------------------------|----|


----|------------------|----------------------------------------------|-------|
----|------------------|----------------------------------------9-7-\-|-------|
----|------------------|----------------------------------------9-7-\-|-------|
----|------------------|----9-------7------7-------9-------7----------|-------|
----|-14-12-14-12-10-9-|-9--9---7h9----7h9----9----9---7h9----9-------|-------|
----|-------14-12-10-9-|-7----------------------7---------------------|-------|
            P.M.......   P  P                      P            P P

----|-----------------------------------------------------------------|-------|
----|-----------------------------------------------------------------|-------|
----|-----------------------------------------------------------------|-------|
----|-------0-2-0---------------------------------------0-2-0---------|-------|
----|-0-1-2-------2-------------------------------0-1-2-------2-------|-------|
----|-----------------------------------------------------------------|-------|
                       trupet sounds             "............."

----|-------------------------------------------------------|----------|--|---|
----|-------------------------------------------------------|----------|--|---|
----|-------------------------------------------------------|-19h20-19-|--|---|
----|-------17----17----18----18-19-20--21---21---21---21---|----------|--|---|
----|-17/19----19----19----20-------------------------------|----------|--|---|
----|-------------------------------------------------------|----------|--|---|


----|------------------|--|------------------------|--------------------------|
----|------------------|--|------------------------|--------------------------|
----|------------------|--|------------------------|--------------------------|
----|-2/4--------------|2x|-2/4-----/21--vvvvvvvv\-|--------------------------|
----|-----7-5----------|--|-----7-5----------------|--------------------------|
----|---------7vvvv-\--|--|------------------------|--------------------------|
     Let Ring

----|----------------------------------------------|-------------------|------|
----|----------------------------------------------|-------------------|------|
----|----------------------------------------------|-------------------|------|
----|----------------------------------------------|-------------------|------|
----|----------------------------------------------|-------------------|------|
----|-7--------------------------------------------|-------------------|------|
                                                     Mess w/ Scale End
Добавлено: 27.09.2013
Другие материалы по этой песне:
  • Аккорды и текст

Страница создана 27.09.2013
http://primanota.ru/misc-computer-games/rayman-legends-castle-rock-theme-chords.htm
Привет, Гость.
Предлагаем пройти революционный курс по гитаре.
Подарок от PrimaNota.Ru, забирай!