PrimaNota.ru - самый крупный в мире бесплатный архив песенных текстов, аккордов, табулатур и нот


Misc Computer Games - Megaman 3 - таба, видео

Регистрация Запомнить меня
Войти через:  Facebook Google Twitter Vk Yandex Mail.ru

Misc Computer Games - Megaman 3 - таба, видео

Печатать
Просмотров: 168
Уроки эстрадного вокала в Санкт-Петербурге
=======================================================================
MegaMan 3: Intro Tab  by: Drunken Master  marsthestuntman@hotmail.com
=======================================================================
I'm almost positive this is accurate.  There might be a few little
quirks like some slides I missed or something, but you can figure that
if you listen to the song.  I'm not too good a writing tab, but I tried
my best to get the timing and stuff right.

I will write notes to try and help.  If you notice a way to make it
better somehow or any mistakes, please let me know.

The tab is laid out in the order that the tune us played, and should
be viewed using courier font.

------------------------------------------
-2-----2----1h2-----5--4---2-p0-3----2-p0-
-2-----2-h4-1-------4--4--------2--1------
-4---4------2----2--2-----------0---------
-----------------------2---2--------------
------------------------------------------
Use your Thumb, Index, and Middle fingers to play the chords.
Index on 3rd string, Middle on 2nd string, and thumb to play
the rest for this part.


  A        B
-------------------------------------/8-7-5---5--5-7-
-2------------------------------------------7--------
---2--------2-----2--4--5--4p2---2-------------------
-----4--2-4----4-----------0---4-0-------------------
-------------------------------------------------5-7-
-2----------0----------------------------------------
Use your Index to bar off the 2nd fret for the first part (A to B).
If you don't way to mess with trying to play the bass notes, just
leave 'em out and play just the high notes.


  A          B
-------------------------/7--5-------------------
----------2-5-/7-----5-7--------7-5-/7-5-----5-7-
------2-4---------6----------------------6-------
-4--6---------------------0----------------------
-------------------------------------------------
-2-------------0---------------------------------
Bar off the 2nd fret like last time.. but it's harder.
Again, you don't need to.



-/9-5-----------------------5--7-/9--7--5-----5-4---------9-13-
------7---------------5--7------------------7---------9-12-----
--------6-------4--6--------------------------------10---------
----------4-6-7----------------------------------/11-----------
---------------------------------------------------------------
---------------------------------------------------------------
This is the little rundown and buildup for when the song kicks in.


--------------------------------------------------
--------------------------------------------------
--------------------------------------------------
--------------------------------------------------
-4p2--4--2--4--2--4--2----4p2--4--2--4--2--4--2---
--------------------------0----0--0--0--0--0--0---


-------------------------------------------------------
-------------------------------------------------------
-------------------------------------------------------
-------------------------2p0-----6p4-6p4-6p4-6p4-6p4-3-
-0-----0h2-----2h4-0h2h4-----4p2----4---4---4---4------
---2h4-----4/5-----------------------------------------
This part is played really fast.  I think it might be an octave
higher actually.


---------------------------------
---------5---4-----5---4---------
---4h6-----------4---------6---4-
-4-----4---4---4-----4---4---4---
---------------------------------
---------------------------------
The main riff I guess.  Bar off 4rth fret with your index.
I recommend finger picking it, because it sounds sweet, and I
suck at fast picking.  Thumb = 4th string, index = 3rd,
middle = 2nd


----------------------------------------
---------5---4-----5---4-----5-/9---7-5-
---4h6-----------4---------6------------
-4-----4---4---4-----4---4--------------
-----------------------------------------
----------------------------------------
Same thing, but changes at the end.


----------------------------------------------
---5-/9---7-5--4--5---4-----------------------
-6----------------------6--6--4--4-6--6--6--6-
----------------------------------------------
----------------------------------------------
----------------------------------------------


-------7---5---4------------
---4---------------5---5--7-
-6---6---6---6---6---6------
----------------------------
----------------------------
----------------------------
Thumb = 3rd, Index = 2nd, Middle = 1st


------------------------------------
-/9--7-5---5--7-/9--7-5---5---7-5-
---------6--------------6---6-----
------------------------------------
------------------------------------
------------------------------------
A little fill.. this is the only part I'm not too sure
about.  I can't really remember.


-------7---5---4------------
---4---------------5---5--7-
-6---6---6---6---6---6------
----------------------------
----------------------------
----------------------------


------------------9-9-7-9---7-9-9-
-/9-9-7-9---7-9-9-----------------
----------------------------------
----------------------------------
----------------------------------
----------------------------------
The final bit.  then goes back into the main riff again.


ENJOY!

_________________________________________________________________
     
Добавлено: 27.11.2013
Другие материалы по этой песне:

Страница создана 27.11.2013
http://primanota.ru/misc-computer-games/megaman-3-chords.htm
Привет, Гость.
Предлагаем пройти революционный курс по гитаре.
Подарок от PrimaNota.Ru, забирай!