PrimaNota.ru - самый крупный в мире бесплатный архив песенных текстов, аккордов, табулатур и нот


Misc Computer Games - Canis Canem Edit - Walking Theme - бас-таба, видео

Регистрация Запомнить меня
Войти через:  Facebook Google Twitter Vk Yandex Mail.ru

Misc Computer Games - Canis Canem Edit - Walking Theme - бас-таба, видео

Печатать
Просмотров: 119
Canis Canem Edit
Walking Theme
Drop D
Tabbed by: Kattipus

Really fun to play. tabbed partly from this video
http://www.youtube.com/watch?v=jFuifLDyixk


part one 
G|-------------------------------------|
D|-------------------------------------|
A|-7---7---7---7---3---3---5---5-------|
D|---9---9---9---9---5---5---7---7-----|

G|-------------------------------------|
D|-------------------------------------|
A|-7---7---7---7---3---3---5---5-6-----|
D|---9---9---9---9---5---5---7---------|

part two
G|-------------------------------------|
D|-------------------------------------|
A|-7---7---7---76543---3---3---3456----|
D|---9---9---9-------5---5---5---------|  
                                         (x2)
G|-------------------------------------|
D|-------------------------------------|
A|-7---7---7---76543---3---5---5-6-----|
D|---9---9---9-------5---5---7---------|  


part three
g|----------------------|
d|----------------------|
a|77-7-777-7-333-3-55-5-| (x4)
e|----------------------|


funky bit
g|---------2-0----------5-4-2-0-20---|
d|------2-------2--------------------|
a|------------------3-3--------------|
D|2-2--------------------------------|
                                       (x2)
g|---------2-0----------5-------7----|
d|------2-------2--------------------|
a|------------------3-3----5-5----5--|
D|2-2--------------------------------|


quiet part
G|---9-12-9---9-12-9----9-12-9----11-14-11-|
D|-----------------------------------------| (x3)
A|-7~-------7~-----------------------------|
D|-------------------10~-------12~---------|


palm mutes?
g|----------------------|          
d|----------------------|
a|x7x7x7x7x3x3x5x5------| 
e|----------------------|


outro
g|---------8-8-8-8---------------|
d|-7-7-7-7---------7-7-7-7-9-9-9-|
a|--------6-6-6-6----------------|
e|7-7-7-7---------7-7-7-7-9-9-9--|
Добавлено: 08.01.2014
Другие материалы по этой песне:
  • Аккорды и текст

Страница создана 08.01.2014
http://primanota.ru/misc-computer-games/canis-canem-edit-walking-theme-chords.htm
Привет, Гость.
Предлагаем пройти революционный курс по гитаре.
Подарок от PrimaNota.Ru, забирай!