PrimaNota.ru - самый крупный в мире бесплатный архив песенных текстов, аккордов, табулатур и нот


Misc Computer Games - Megaman 2 - Flash Man - таба, видео

Регистрация Запомнить меня
Войти через:  Facebook Google Twitter Vk Yandex Mail.ru

Misc Computer Games - Megaman 2 - Flash Man - таба, видео

Печатать
Просмотров: 101
Новый альбом группы 'Черный Кузнец' по культовому сериалу 'Сверхъестественное'!
Megaman 2 - Flashman song


Gtr I (D A D G B E) - Main Melody (The part you probably hum)
Gtr II (D A D G B E) - Harmonies and Weird Keyboard Melody

  Q=140
  Gtr I
  Q  E E E. E. E   E. E. E E E S E.
|----------------|------------------|
|----------------|------------------|
|----------------|------------------|
|----------------|------------------|
|------2-5--4--0-|-3--2-------------|
|-2--5-----------|-------5-7-5-2-0--|
|
| Gtr II
|----------------|------------------|
|----------------|------------------|
|----------------|------------------|
|----------------|------------------|
|----------------|------------------|
|----------------|------------------|


  E S S S S E S S S S Q    E S S S S S S S S S S S S S S
|------------------------|----------------------------------|
|------------------------|----------------------------------|
|------------------------|-------------4---4----------------|
|---4-4-4-5---4-4-4-5----|---4-4-4-5---------7---5---4------|
|------------------------|----------------------------------|
|-2----------------------|----------------------------------|
|
| E S S S S E S S S S Q    E S S S S S S S S S S S S S S
|------------------------|----------------------------------|
|------------------------|----------------------------------|
|------------------------|----------------------------------|
|------------------------|-------------5---5----------------|
|---5-5-5-7---5-5-5-7----|---5-5-5-7---------9---7---5------|
|------------------------|----------------------------------|


  Q  E E E. E. E   E. E. E E E S E.
|----------------|------------------|
|----------------|------------------|
|----------------|------------------|
|----------------|------------------|
|------2-5--4--0-|-3--2-------------|
|-2--5-----------|-------5-7-5-2-0--|
|
|----------------|------------------|
|----------------|------------------|
|----------------|------------------|
|----------------|------------------|
|----------------|------------------|
|----------------|------------------|


  E S S S S E S S S S Q    E S S S S S S S S S S S S S S
|------------------------|----------------------------------|
|------------------------|----------------------------------|
|------------------------|-------------4---4----------------|
|---4-4-4-5---4-4-4-5----|---4-4-4-5---------7---5---4------|
|------------------------|----------------------------------|
|-2----------------------|----------------------------------|
|
| E S S S S E S S S S Q    E S S S S S S S S S S S S S S
|------------------------|----------------------------------|
|------------------------|----------------------------------|
|------------------------|----------------------------------|
|------------------------|-------------5---5----------------|
|---5-5-5-7---5-5-5-7----|---5-5-5-7---------9---7---5------|
|------------------------|----------------------------------|


  Q  E E E. E. E   E. E. E E E S E.
|----------------|------------------|
|----------------|------------------|
|----------------|------------------|
|----------------|------------------|
|------2-5--4--0-|-3--2-------------|
|-2--5-----------|-------5-7-5-2-0--|
|
|----------------|------------------|
|----------------|------------------|
|----------------|------------------|
|----------------|------------------|
|----------------|------------------|
|----------------|------------------|


  E S S S S E S S S S Q    E S S S S S S S S S S S S S S
|------------------------|-------------------------------|
|------------------------|-------------------------------|
|------------------------|-------------4---4-------------|
|---4-4-4-5---4-4-4-5----|---4-4-4-5---------7---5---4---|
|------------------------|-------------------------------|
|-2----------------------|-------------------------------|
|
| E S S S S E S S S S Q    E S S S S S S S S S S S S S S
|------------------------|-------------------------------|
|------------------------|-------------------------------|
|------------------------|-------------------------------|
|------------------------|-------------5---5-------------|
|---5-5-5-7---5-5-5-7----|---5-5-5-7---------9---7---5---|
|------------------------|-------------------------------|


  Q  E E E. E. E   E. E. E E E S E.
|----------------|------------------|
|----------------|------------------|
|----------------|------------------|
|----------------|------------------|
|------2-5--4--0-|-3--2-------------|
|-2--5-----------|-------5-7-5-2-0--|
|
|----------------|------------------|
|----------------|------------------|
|----------------|------------------|
|----------------|------------------|
|----------------|------------------|
|----------------|------------------|


  E S S S S E S S S S Q    S S S S S S S S  Q   +E   +S  S
|------------------------|-----------------------------------|
|------------------------|-----------------------------------|
|------------------------|-----------------------------------|
|---4-4-4-5---4-4-4-5----|-7-7---7---7---7--9---(9)--(9)-----|
|------------------------|-----------------------------------|
|-2----------------------|-----------------------------------|
|
| E S S S S E S S S S Q    S S S S S S S S  Q   +E   +S  S
|------------------------|-----------------------------------|
|------------------------|-----------------------------------|
|------------------------|-----------------------------------|
|------------------------|-----------------------------------|
|---5-5-5-7---5-5-5-7----|-9-9---9---9---9-10--(10)-(10)-----|
|------------------------|-----------------------------------|


   E   E    E    E    Q        E    E     E   E   E   H              E
|---------------------------------------|------------------------------|
|---------------------------------------|------------------------------|
|---------------------------------------|------------------------------|
|-----------9----7----9--------7--------|-7---9------------------------|
|------7---------------------------10---|-------------7-------------10-|
|---------------------------------------|------------------------------|
|
|  S S S  S S  S S  S S  S S S S S  S S   S S S S S S E S S S S S S  E
|---------------------------------------|------------------------------|
|---------------------------------------|------------------------------|
|---------------------------------------|------------------------------|
|----7-----------7----------------------|------------------------------|
|-10-----10---10---10-9-10---9---9-10-9-|-5-7---7---5-7-5-7---7---5--7-|
|---------------------------------------|------------------------------|


   E   E    E    E    E    E   E    E     +H              E   E    E   E
|---------------------------------------|----------------------------------|
|---------------------------------------|----------------------------------|
|---------------------------------------|----------------------------------|
|---------------------------------------|------------------------------7---|
|--9--------9---------9----7---5----7---|-(7)-----------------7---10-------|
|---------------------------------------|----------------------------------|
|
|  S S S  S S  S S  S S  S S S S S  S S    S  S S S S S E S S S S  S S E
|---------------------------------------|----------------------------------|
|---------------------------------------|----------------------------------|
|---------------------------------------|----------------------------------|
|----7-----------7----------------------|----------------------------------|
|-10-----10---10---10-9-10---9---9-10-9-|--5--7---7---5-7-5-7---7----5-7---|
|---------------------------------------|----------------------------------|


   E   E    E    E    Q        E    E     E   E   E   H              E
|---------------------------------------|------------------------------|
|---------------------------------------|------------------------------|
|---------------------------------------|------------------------------|
|-----------9----7----9--------7--------|-7---9------------------------|
|------7---------------------------10---|-------------7-------------10-|
|---------------------------------------|------------------------------|
|
|  S S S  S S  S S  S S  S S S S S  S S   S S S S S S E S S S S S S  E
|---------------------------------------|------------------------------|
|---------------------------------------|------------------------------|
|---------------------------------------|------------------------------|
|----7-----------7----------------------|------------------------------|
|-10-----10---10---10-9-10---9---9-10-9-|-5-7---7---5-7-5-7---7---5--7-|
|---------------------------------------|------------------------------|


   E   E    E    E     E    E   E    E     +H              E   E    E   E
|----------------------------------------|----------------------------------|
|----------------------------------------|----------------------------------|
|----------------------------------------|----------------------------------|
|---------------------------7------------|------------------------------7---|
|--9--------9---------10--------9----7---|-(7)-----------------7---10-------|
|----------------------------------------|----------------------------------|
|
|  S S S  S S  S S  S  S  S S S S S  S S    S  S S S S S E S S S S  S S E
|----------------------------------------|----------------------------------|
|----------------------------------------|----------------------------------|
|----------------------------------------|----------------------------------|
|----7-----------7-----------------------|----------------------------------|
|-10-----10---10---10--9-10---9---9-10-9-|--5--7---7---5-7-5-7---7----5-7---|
|----------------------------------------|----------------------------------|


   W           H     H       E  Q   +E  E  E  E  E   E  E E  E E  E E  E
|-----------|-------------|------------------------|---------------------|
|-----------|-------------|------------------------|---------------------|
|-----------|-------------|------------------------|---------------------|
|--9--------|--8-----7----|----------------------7-|-8--9-8--9-7---------|
|-----------|-------------|-10--7---(7)----7-10----|-------------10-7--5-|
|-----------|-------------|------------------------|---------------------|
|
|  W           H     H       E  E E  E  E  E  E  E   E  E E  E E  E E  E
|-----------|-------------|------------------------|---------------------|
|-----------|-------------|------------------------|---------------------|
|-----------|-------------|------------------------|---------------------|
|-12--------|-11----10----|-------7-----9----------|-7----9--------------|
|-----------|-------------|----10---10----10----10-|---10---10---10-9-10-|
|-----------|-------------|------------------------|---------------------|


   W           H     H       E  Q   +E  E  E  E  E   E  E E  E E  E  E  E
|-----------|-------------|------------------------|--------------------7-|
|-----------|-------------|------------------------|--------------7-10----|
|-----------|-------------|------------------------|-9---------8----------|
|--9--------|--8-----7----|----------------------7-|----9-9--9------------|
|-----------|-------------|-10--7---(7)----7-10----|----------------------|
|-----------|-------------|------------------------|----------------------|
|
|  W           H     H       E  E E  E  E  E  E  E   E  E E  E E  E  E  E
|-----------|-------------|------------------------|----------------------|
|-----------|-------------|------------------------|----------------------|
|-----------|-------------|------------------------|----------------------|
|-12--------|-11----10----|-------7-----9----------|-7----9---------------|
|-----------|-------------|----10---10----10----10-|---10---10---10--9-10-|
|-----------|-------------|------------------------|----------------------|


Добавлено: 17.10.2014
Другие материалы по этой песне:

Страница создана 28.10.2013
http://primanota.ru/misc-computer-games/megaman-2-flash-man-chords.htm
Привет, Гость.
Предлагаем пройти революционный курс по гитаре.
Подарок от PrimaNota.Ru, забирай!