PrimaNota.ru - самый крупный в мире бесплатный архив песенных текстов, аккордов, табулатур и нот


Misc Computer Games - Sonic Knuckles - The Doomsday Zone - таба, видео

Регистрация Запомнить меня
Войти через:  Facebook Google Twitter Vk Yandex Mail.ru

Misc Computer Games - Sonic Knuckles - The Doomsday Zone - таба, видео

Печатать
Просмотров: 117
I looked at the archive of tabs and realized the only tab for this was on a power
tab so I decided to give it a go and here it is:

Standard Tuning

Intro:

Fast Rock: 145

Gtr 1.
|-----------------------|
|-4-3-----(3)-----------|
|-5-1-----(1)-----------|
|-----------------------|
|-----------------------|
|-----------------------|
|
|Gtr.2  (these are 10's and 11's not 1 and 0's)
|-------------123456789101110987654321--------------|
|---------2345------------------------5432----------|
|-----2345--------------------------------543210----|
|-3456------------------------------------------4---|
|---------------------------------------------------|
|---------------------------------------------------|


Gtr.1
|---------------------------|
|-4-1------2----------------|
|-5-3------0----------------|
|---------------------------|
|---------------------------|
|---------------------------|
|
|Gtr.2 (these are 23,22,21,20,19,18,17,16,15,14,13,12,11,10)
|------------------------------------------------------------------|
|------------------------------------------------------------------|
|------------------------------------------------------------------|
|-23222120191817161514131211109876543210---------------------------|
|---------------------------------------43210123456789101112131415-|
|------------------------------------------------------------------|


Gtr.1
|------------------------------------------------------|
|------------------------------------------------------|
|----5----4----3----2----2--------2------------------0-|
|----7----6----5----4----3--------3------------------2-|
|------------------------------------------------------|
|------------------------------------------------------|
|
|
|Gtr.2
|-----5-----4-----3-----2-----1-(1)-5-----------6-5-----3----|
|---7-----6-----5-----4-----3--------------------------------|
|-8-----7-----6-----5-----4----------------------------------|
|------------------------------------------------------------|
|------------------------------------------------------------|
|------------------------------------------------------------|

-----------------------------------------------------------------------------

Main theme:

Gtr.1
|--------------------------|
|--------------------------|
|--------------------------|
|-3------------------0-1-2-|
|-----0--1--2--3--4--------|
|--------------------------|
|
|
|Gtr.2
|-------------------------13-16----12-15----11-14----10-13----9-12----|
|----------------------15-------14-------13-------12-------11------10-|
|-2s14--14/(15)--14s0-------------------------------------------------|
|----------TRILL------------------------------------------------------|
|---------------------------------------------------------------------|
|---------------------------------------------------------------------|

Gtr.1
|--------------------------|
|--------------------------|
|--------------------------|
|-3------------------0-1-2-|
|-----0--1--2--3--4--------|
|--------------------------|
|
|
|Gtr.2
|-0---------------------------0------------------------|
|-----3---------------------------3------------------5-|
|---2---0-(0)-5----------5------2---0-(0)-5------------|
|---------------3----2-3--------------------3----2-3---|
|------------------------------------------------------|
|------------------------------------------------------|

Gtr.1
|-------------------------------------------------|
|----------------4--------------------------------|
|-------------------------------------------------|
|-5--------------5-------3------------------0-1-2-|
|----------------------------0--1--2--3--4--------|
|-6-----------------------------------------------|
|
|
|Gtr.2
|---------------------------------|
|----3-------4---3---6-----6-5-3--|
|--------5------------------------|
|---------------------------------|
|---------------------------------|
|---------------------------------|
|
|
|Gtr.3
|----13-16----12-15----11-14----10-13----9-12---|
|-15-------14-------13-------12-------11------10|
|-----------------------------------------------|
|-----------------------------------------------|
|-----------------------------------------------|
|-----------------------------------------------|

Gtr.1
|-1-1-1-1-1-1-1---1-1-1-1-1---2-2-2-2-2---2-3---3-3-3-3-3---4-4-4-4-4---4-5---5-5-5-5-5|
|-3-3-3-3-3-3-3---3-3-3-3-3---4-4-4-4-4---4-5---5-5-5-5-5---6-6-6-6-6---6-7---7-7-7-7-7|
|--------------------------------------------------------------------------------------|
|--------------------------------------------------------------------------------------|
|--------------------------------------------------------------------------------------|
|--------------------------------------------------------------------------------------|
|
|
|Gtr.2
|-------5----4-3---------------6----5-4-----------------8----7-6----|
|-----6----------6-----------7----------8-------------9----------10-|
|---7--------------------5-8--------------------7--10---------------|
|-8-----------------------------------------------------------------|
|-------------------------------------------------------------------|
|-------------------------------------------------------------------|

Gtr.1
|-6-6-6-6-6--6----10-10-10-10-10-10-9-9-9-9-9-9-10-10-10-10-10-10-9-9-9-9-9-9|
|-8-8-8-8-8--8----8--8--8--8--8--8--8-8-8-8-8-8-8--8--8--8--8--8--8-8-8-8-8-8|
|----------------------------------------------------------------------------|
|----------------------------------------------------------------------------|
|----------------------------------------------------------------------------|
|----------------------------------------------------------------------------|
|
|
|Gtr.2
|--------10---9-10----12~~~~~~~~~~~~~~(12)~~~~~~~~~~|
|---8-12--------------------------------------------|
|-9-------------------------------------------------|
|---------------------------------------------------|
|---------------------------------------------------|
|---------------------------------------------------|
Добавлено: 17.02.2014
Другие материалы по этой песне:

Страница создана 03.06.2013
http://primanota.ru/misc-computer-games/sonic-knuckles-the-doomsday-zone-2-chords.htm
Привет, Гость.
Предлагаем пройти революционный курс по гитаре.
Подарок от PrimaNota.Ru, забирай!