PrimaNota.ru - самый крупный в мире бесплатный архив песенных текстов, аккордов, табулатур и нот


Misc Computer Games - Mass Effect 3 - I Was Lost Without You - таба, видео

Регистрация Запомнить меня
Войти через:  Facebook Google Twitter Vk Yandex Mail.ru

Misc Computer Games - Mass Effect 3 - I Was Lost Without You - таба, видео

Печатать
Просмотров: 1108
-------------------------------------------------------------------------------
                          I Was Lost Without You - Sam Hulick
-------------------------------------------------------------------------------
Tabbed by: guitarist69r
Email: gamer69r@gmail.com

Tuning: D G C F A d

Guitar tuner: http://adf.ly/1692170/online-guitar-tuner

Song: http://adf.ly/1692170/www.youtube.com/watch?v=OQeFvUuPNHc

 Finger Picking

d|-0-------0-------0-------0-------0------2--3--5-3-2--0----------|
A|----0-------1-------0-------1-------0------1------3----3-2------|
F|----0-------0-------0-------0-------0------0------4------2--2---|
C|---------------------------------------------------------2--2---|
G|---------3---------------3-----------------3------2------0------|
D|-0---------------0---------------0------------------------------|



  -0-----2--0------0-2-0-2--3---5---7-----7-------------0------|
  ----0--------1------------1---5---5--5--5--5--3--0-3----0----|
  ----0--------0-----------------------4-----4------------0----|
  ----------------------------------------------4--------------|
  ----------3---------------3---3---0-----3-----2--------------|
  -0---------------0------------------------------------0------|



  -0------0-----2--0--2-3--3-5-3-2--0------0-------0------|
  ----1------0-----1----------------2---------0-------0---|
  ----0------0----------------------2--2------0-------0---|
  -----------------------------0-------2------------------|
  -3---------------3-------2--------0---------------------|
  --------0--------------------------------0-------0------|



 |-3---5---3---5---2-----------0---3---5---3---5---2-0-2-------------|
 |-0-------1-------3---3---2-------0-------1-------3-----3--2-0-2----|
 |-0-------0-------4-------2-------0-------0-------4--------2-----2--|
 |-2-------2-------4-------2-------2-------2-------4--------2--------|
 |---------3-------2-------0---------------3-------2--------0--------|
 |-------------------------------------------------------------------|


  Guitar 1
  -3-2-3-0--3-2-3-0-----------------0--3-2-3-5-7-------9-7-9-5--3-2-3-0-------0--|
  -0--------1--------3-2-3----2-0-2----0-------7---7------------1--------3----2--|
  -0--------0--------4-----4--2--------0-------7----------------0--------4----2--|
  -2--------2--------4--------2--------2-------9-------7--------2--------4----2--|
  -2--------3--------2--------0--------2-------9-------7--------3--------2----0--|
  -0-------------------------------------------7-------5-------------------------|
  Guitar 2
  --------------------------------------------------------------------------------|
  -----------------------------------------------------2-0-2----------------------|
  -0---0----0---0----------------------0---0-2-4-------------2--0---0-------------|
  ---4---2----4---2--0---0----------2----4---------4--------------4---2--0--------|
  ----------3--------2-4---2--4-2-4------------2-------0--------3-------------4---|
  -0--------------------------5--------0--------------------------------------5---|




 |-2---3---5---7---0--7--7--5-7---9-10-9h10p9p7----5/7----|
 |-3-------2-------0--------------------------------------|
 |-4-------2-------0--------------------------------------|
 |-4-------2-------2--------------------------------------|
 |-2-------0-------2--------------------------------------|
 |-----------------0-------------------7------------------|



  -0--7--7--5-7---9-10-9h10p9p7----5/7----------5-5---5-----------------------|
  ----------------------------------------5-7-5------5---2-3-5--3p2p0---------|
  -------------------------------------7------6--------------------------2/4--|
  --------------------------------------------7-------------------------------|
  --------------------------------------------7-------------------------------|
  -0-------------------7----------------------5-----------------3-------------|



  ------------------0---2---3---5---7------------|
  -0--2--3--2---3---0-------1-------7------------|
  ----------2-------0-------0-------7------------|
  ----------2-------2-------2-------9------------|
  ----------0-------2-------3-------9------------|
  ------------------0---------------7------------|

  END

Don't forget to rate! Thanks :D

************************************

| /   slide up
| \   slide down
| h   hammer-on
| p   pull-off
| ~   vibrato
| +   harmonic
| x   Mute note
| b   Bend
| pb  Pre-bend
| br  Bend release
| pbr Pre-bend release
| brb Bend release bend

************************************
Добавлено: 15.11.2013
Другие материалы по этой песне:

Страница создана 17.07.2013
http://primanota.ru/misc-computer-games/mass-effect-3-i-was-lost-without-you-chords.htm
Привет, Гость.
Предлагаем пройти революционный курс по гитаре.
Подарок от PrimaNota.Ru, забирай!