PrimaNota.ru - самый крупный в мире бесплатный архив песенных текстов, аккордов, табулатур и нот


Misc Computer Games - Metro 2033 - Acoustic Medley - таба, видео

Регистрация Запомнить меня
Войти через:  Facebook Google Twitter Vk Yandex Mail.ru

Misc Computer Games - Metro 2033 - Acoustic Medley - таба, видео

Печатать
Просмотров: 519
-------------------------------------------------------------------------------
                         Metro 2033 - Acoustic Medley
-------------------------------------------------------------------------------
Tabbed by: Kieran Wyatt
E-mail:Kieran_wyatt94@hotmail.com

Tuning: Standard.


Song 1


E|----------------------|-----------------|---------------------|
B|-----0-1-1-0---3-1-0-0|-----0-1-1-0----0|----0-1-1-0---3-1-0-0|
G|---2-----0---2-2-----0|---2----------2-1|--2-----0---2-2-----0|
D|-2-2------------------|-2-2------------2|2-2------------------|
A|---0------------------|---0------------2|--0------------------|
E|---------3-----1-----3|---------1------0|--------3-----1-----3|

E|--------------------|
B|1-0---0--------0-1--|
G|2---2----2-1-2-----2|
D|2------------2------|
A|0-----2------0------|
E|--------------------|     
                          
E|----------------------------|------------------------------|
B|----0------0-----1------1-0-|----3-------3------0------0---|
G|--2---2---2--0--0--0---0--0-|---2-2-----2--2---1--1---1-1--|
D|-2---2---2--2--0--0---0--0--|--0---0---0--0---2--2---2-2---|
A|0-------0-------------------|------------------------------|
E|--------------3------3------|-1-------1------0------0------|(x2)

E|----0-------0-------0-------0---|----0------0------0------0---|
B|--0-0--0---00-0---1-1-1---1-1-0-|--3-3-3--3-3-3--0-0-0--0-0-0-|
G|--------------------------------|-----------------------------|
D|-2----2---2--2---0---0---0---0--|-0---0--0---0--2---2--2---2--|
A|0--------0----------------------|-----------------------------|
E|----------------3-------3-------|1------1------0------0-------|(x2)


E|-0-----0-----0-----0-----0-----0-----0-----0-----|0-----0-----0-----0-----0-----0-----0-----0-----|
B|-0-0-0-0-0-0-0-0-0-0-0-0-1-1-1-1-1-1-1-1-1-1-1-1-|3-3-3-3-3-3-3-3-3-3-3-3-0-0-0-0-0-0-0-0-0-0-0-0-|
G|-2-2-2-2-2-2-2-2-2-2-2-2-0-0-0-0-0-0-0-0-0-0-0-0-|2-2-2-2-2-2-2-2-2-2-2-2-1-1-1-1-1-1-1-1-1-1-1-1-|
D|-2-2-2-2-2-2-2-2-2-2-2-2-0-0-0-0-0-0-0-0-0-0-0-0-|0-0-0-0-0-0-0-0-0-0-0-0-2-2-2-2-2-2-2-2-2-2-2-2-|
A|-0-0-0-0-0-0-0-0-0-0-0-0-x-x-x-x-x-x-x-x-x-x-x-x-|0-0-0-0-0-0-0-0-0-0-0-0-2-2-2-2-2-2-2-2-2-2-2-2-|
E|-x-x-x-x-x-x-x-x-x-x-x-x-3-3-3-3-3-3-3-3-3-3-3-3-|x-x-x-x-x-x-x-x-x-x-x-x-0-0-0-0-0-0-0-0-0-0-0-0-|
 (x2 again)


E|-0-00000-0-0-0-00000-0-0-0-00000-0-0-0-00000-0-0-|0-00000-0-0-0-00000-0-0-0-00000-0-0-0-00000-0-0-|
B|-0-00000-0-0-0-00000-0-0-1-11111-1-1-1-11111-1-1-|3-33333-3-3-3-33333-3-3-0-00000-0-0-0-00000-0-0-|
G|-2-22222-2-2-2-22222-2-2-0-00000-0-0-0-00000-0-0-|2-22222-2-2-2-22222-2-2-1-11111-1-1-1-11111-1-1-|
D|-2-22222-2-2-2-22222-2-2-0-00000-0-0-0-00000-0-0-|0-00000-0-0-0-00000-0-0-2-22222-2-2-2-22222-2-2-|
A|-0-00000-0-0-0-00000-0-0-x-xxxxx-x-x-x-xxxxx-x-x-|0-00000-0-0-0-00000-0-0-2-22222-2-2-2-22222-2-2-|
E|-x-xxxxx-x-x-x-xxxxx-x-x-3-33333-3-3-3-33333-3-3-|x-xxxxx-x-x-x-xxxxx-x-x-0-00000-0-0-0-00000-0-0-|


E|0-00000-0-0-0-00000-0-0-0-00000-0-0-0-00000-0-0-|0-00000-0-0-0-00000-0-0-0-00000-0-0-0-----0-----0|
B|0-00000-0-0-0-00000-0-0-1-11111-1-1-1-11111-1-1-|3-33333-3-3-3-33333-3-3-0-00000-0-0-1-1-1-1-1-1-1|
G|2-22222-2-2-2-22222-2-2-0-00000-0-0-0-00000-0-0-|2-22222-2-2-2-22222-2-2-1-11111-1-1-2-2-2-2-2-2-2|
D|2-22222-2-2-2-22222-2-2-0-00000-0-0-0-00000-0-0-|0-00000-0-0-0-00000-0-0-2-22222-2-2-2-2-2-2-2-2-2|
A|0-00000-0-0-0-00000-0-0-x-xxxxx-x-x-x-xxxxx-x-x-|0-00000-0-0-0-00000-0-0-2-22222-2-2-0-0-0-0-0-0-0|
E|x-xxxxx-x-x-x-xxxxx-x-x-3-33333-3-3-3-33333-3-3-|x-xxxxx-x-x-x-xxxxx-x-x-0-00000-0-0-x-x-x-x-x-x-x|



Song 2.

      
                                                                 (let ring)
E|-------------------------------|    E|-------------------------------|---------------|
B|---------1---------------3-----|    B|----3---------------3-------0--|-1-------------|
G|-----2-------2-------4-------4-|    G|--0---------0-----0------------|-2-------------|
D|---2---2---2-------4---4---4---|    D|------0---2---0-------0---2----|-2-------------|
A|-0---------------2-------------|    A|-------------------------------|-0-------------|
E|-------------------------------|    E|3-------0-------3-------0------|---------------|
  (x2)
E|---------0---------------2-----|    E|-----0---------|-0--------------|
B|-----1-------1-------3-------3-|    B|-----3-------0-|-1--------------|
G|---2---2---2-------4---4---4---|    G|---0---------0-|-2--------------|
D|-------------------------------|    D|-------0---2---|-2--------------|
A|-0---------------2-------------|    A|---------------|-0--------------|
E|-------------------------------|    E|-3-------0-----|----------------|
  (x2)                                  (x2)

E|-----0-------0-------2-------2-|    E|-----0---------|----------------|
B|-----1-------1-------3-------3-|    B|-----3-------0-|-1--------------|
G|---2-2-2---2-2-----4-4-4---4-4-|    G|---0---------0-|-2--------------|
D|-------------------------------|    D|-------0---2---|-2--------------|
A|-0-------0-------2-------2-----|    A|---------------|-0--------------| 
E|-------------------------------|    E|-3-------0-----|----------------|
  (x2)                                  (x2)



Song 3.



        Am         Bsus4/G        Am         Bsus4/G
E|----------------------------------------------------|
B|---------1--------------0----------1--------------0-|
G|-----2-------2------0----------2-------2------0-----|
D|---2---2---2----------2------2---2---2----------2---|
A|-0----------------2--------0----------------2-------|
E|----------------0-------------------------0---------|
      
        Dm            Am         Ebdim/B        E
E|---------1------------------------------------------|
B|-----3-------3----------1----------0--------------0-|
G|---2---2---2--------2----------2-------2------1-----|
D|-0----------------2---2------1---1---1----------2---|
A|----------------0----------2----------------2-------|
E|------------------------------------------0---------|

         Am         Bsus4/G         Am        Bsus4/G
E|----------------------------------------------------|
B|---------1--------------0----------1--------------0-|
G|-----2-------2------0----------2-------2------0-----|
D|---2---2---2----------2------2---2---2----------2---|
A|-0----------------2--------0----------------2-------|
E|----------------0-------------------------0---------|

        Dm            Am
E|---------1----------------|
B|-----3-------3----------1-|
G|---2---2---2--------2-----|
D|-0----------------2---2---|
A|----------------0---------|
E|--------------------------|

 Ebdim/B   E     Am      A
E|------------------------------|
B|--0~~~~--0~~~~--1~~~~--2~~~~--|
G|--2~~~~--1~~~~--2~~~~--2~~~~--|
D|--1~~~~--2~~~~--2~~~~--2~~~~--|
A|--2~~~~--2~~~~--0~~~~--0~~~~--|
E|---------0~~~~----------------|

        Dm            Am
E|---------1----------------|
B|-----3-------3----------1-|
G|---2---2---2--------2-----|
D|-0----------------2---2---|
A|----------------0---------|
E|--------------------------|

 Dmaj7  Dsus2           Am6
E|--2~~~~--0~~~~--|-------------2-|
B|--2~~~~--3~~~~--|----------1----|
G|--2~~~~--2~~~~--|-------2-------|
D|--0~~~~--0~~~~--|----2----------|
A|----------------|-0-------------|
E|----------------|---------------|





Song 4. (main theme)




E-----------------|-----------------|-----------------|---------------------|
B-----1-3-----3---|-----0-1-----0---|-----1-3-----3---|---------------------|
G---------------2-|---------------2-|---------------2-|-4--0--2--4-5-4-2----|
D---2-2-3---3-----|---3-0-2---2-----|---2-2-3---3-----|---------------------|
A-0-------0-------|-0-------0-------|-0-------0-------|-------0-------------|
E-----------------|-----------------|-----------------|-3--0----------------|

E-----------------|-----------------|-----------------|---------------------|
B-----1-3-----3---|-----0-1-----0---|-----1-3-----3---|---------------------|
G---------------2-|---0-----------2-|---------------2-|-4--0--2--4-5-4-2----|
D---2-2-3---3-----|-----0-2---2-----|---2-2-3---0-----|---------------------|
A-0-------0-------|---------0-------|-0-------2-------|-------0-------------|
E-----------------|-3---------------|-----------------|-3--0----------------|

E-----0-1-----0---|-------0-----0---|-----------------|---------------------|
B---------------5-|-----3---------3-|-----1-3-----3---|-------1--0----------|
G-----0-2---2-----|-------0---------|---------------2-|-4--0----------------|
D---2-------------|---2-3-----2-----|---2-2-3---3-----|---------------------|
A-0-------0-------|-0-------0-------|-0-------0-------|---------------------|
E-----------------|-----------------|-----------------|-3--0--1--3----------|

E-----0-1-----0---|-------0-----0---|-----------------|---------------------|
B---------------5-|-----3---------3-|-----1-3-----3---|---------------------|
G-----0-2---2-----|-------0---------|---------------2-|-4--0--2--4-5-4-2----|
D---2-------------|---2-3-----2-----|---2-2-3---3-----|---------------------|
A-0-------0-------|-0-------0-------|-0-------0-------|-------0-------------|
E-----------------|-----------------|-----------------|-3--0----------------|
Добавлено: 16.07.2013
Другие материалы по этой песне:
  • Аккорды и текст

Страница создана 16.07.2013
http://primanota.ru/misc-computer-games/metro-2033-acoustic-medley-chords.htm
Привет, Гость.
Предлагаем пройти революционный курс по гитаре.
Подарок от PrimaNota.Ru, забирай!