PrimaNota.ru - самый крупный в мире бесплатный архив песенных текстов, аккордов, табулатур и нот


Misc Computer Games - Mario Underground - бас-таба, видео

Регистрация Запомнить меня
Войти через:  Facebook Google Twitter Vk Yandex Mail.ru

Misc Computer Games - Mario Underground - бас-таба, видео

Печатать
Просмотров: 198
Уроки эстрадного вокала в Санкт-Петербурге
Tabbed by: Brandon Price
E-mail: brandon_j_price@hotmail.com

=======================================================================
This is the underground song from the original Mario Brothers NES game.
It is tabbed out for bass but could be played with guitar although the 
second part would sound odd in that high of an octave.
=======================================================================

G |------------------------------------------|
D |---10----7----8--------------10----7----8-|
A |------------------------------------------|
E |-8-----5----6--------------8-----5----6---|

G |---10----7----8--------------10----7----8-|
D |------------------------------------------|
A |-8-----5----6--------------8-----5----6---|
E |------------------------------------------|

G |------------------------------------------|
D |-13-12-11-10------13-12-------11-10-------|
A |------------------------11-10-------------|
E |------------------------------------------|

G |----------15-14-13------------------------|
D |-16-15-14----------13---------------------|
A |----------------------14-13-12-11---------|
E |------------------------------------------|
     
Добавлено: 10.11.2013
Другие материалы по этой песне:
  • Аккорды и текст

Страница создана 10.11.2013
http://primanota.ru/misc-computer-games/mario-underground-chords.htm
Привет, Гость.
Предлагаем пройти революционный курс по гитаре.
Подарок от PrimaNota.Ru, забирай!