PrimaNota.ru - самый крупный в мире бесплатный архив песенных текстов, аккордов, табулатур и нот


Misc Computer Games - Bubble Bobble - таба, видео

Регистрация Запомнить меня
Войти через:  Facebook Google Twitter Vk Yandex Mail.ru

Misc Computer Games - Bubble Bobble - таба, видео

Печатать
Просмотров: 127
"Bubble Bobble" theme (Taito)
Transcribed by Richard from the version
in the puzzle game "Bust A Move 2"
(track 6 on the game CD, BGM #4)

The bass pattern is just F G, and the synth melody is:

 g:--------------0--------------------------
 d:------3-3-0-----------3-3-0--------------
 a:--3-3-------------3-3---------2----------
 e:-----------------------------------------


 g:--------------0---0---2---3-2-0-2-----0--
 d:------3-3-0-------------------------2----
 a:--3-3------------------------------------
 e:-----------------------------------------

There is also a middle-8, but I haven't figured that bit out...


That's it. Hope you enjoy the tune. Let me know if you disagree...
(email address changes, so check to site for current contact details).

http://www.geocities.com/kesmaster.geo

     
Добавлено: 04.06.2013
Другие материалы по этой песне:
  • Аккорды и текст

Страница создана 04.06.2013
http://primanota.ru/misc-computer-games/bubble-bobble-chords.htm
Привет, Гость.
Предлагаем пройти революционный курс по гитаре.
Подарок от PrimaNota.Ru, забирай!