PrimaNota.ru - самый крупный в мире бесплатный архив песенных текстов, аккордов, табулатур и нот


Misc Computer Games - Life Force - End Credits - таба, бас-таба, видео

Регистрация Запомнить меня
Войти через:  Facebook Google Twitter Vk Yandex Mail.ru

Misc Computer Games - Life Force - End Credits - таба, бас-таба, видео

Печатать
Просмотров: 43
Life Force (NES) 1986
End Credits
The song is technically called "Peace Again"
Tabbed by iloveamanda12

Such a great game. One of my all-time favorites! Typically, of NES and 8-bit games,
it has great and extremely catchy music, too.

This ending can't be played on a guitar unless you're willing to go with a heavier
gauge string and tuning up quite a bit. I certainly don't recommend that. I'll leave
it up to you. It can be adapted for a keyboard though. That's the only reason I'm
transcribing it. Enjoy the final song to this amazingly fun and addictive classic.

 guitar 1
e|27---24---25---27---22---29---22---26---29---25---29---27---24---25---27---22-|
B|------------------------------------------------------------------------------|
G|------------------------------------------------------------------------------|
D|------------------------------------------------------------------------------|
A|------------------------------------------------------------------------------|
E|------------------------------------------------------------------------------|

 guitar 2
e|27---24---25---27---22---29---22---26---29---25---29---27---24---25---27---22-|
B|------------------------------------------------------------------------------|
G|------------------------------------------------------------------------------|
D|------------------------------------------------------------------------------|
A|------------------------------------------------------------------------------|
E|------------------------------------------------------------------------------|

==========

 guitar 1
e|29---22---26---29---25---29---22---26-|
B|--------------------------------------|
G|--------------------------------------|
D|--------------------------------------|
A|--------------------------------------|
E|--------------------------------------|

 guitar 1
e|29---22---26---29---25---29---22---26-|
B|--------------------------------------|
G|--------------------------------------|
D|--------------------------------------|
A|--------------------------------------|
E|--------------------------------------|

==========

 guitar 1
e|27---25---23---21----------------------------------20---------------------------|
B|--------------------24---22---20-------------18-20----------------20---18-17-18-|
G|-----------------------------------22---21--------------------------------------|
D|--------------------------------------------------------------------------------|
A|--------------------------------------------------------------------------------|
E|--------------------------------------------------------------------------------|

 guitar 2
e|11---9--------------------------------------------------------------------------|
B|----------12---10---------------------------------------------------------------|
G|--------------------12---10------------------------13---12---10---9-------------|
D|------------------------------13---11---10-----------------------------------12-|
A|--------------------------------------------------------------------------------|
E|--------------------------------------------------------------------------------|

==========

 guitar 1
e|----------------------15---20------22------24------22---24---26------22------26-|
B|----------17------18------------------------------------------------------------|
G|--------------------------------------------------------------------------------|
D|--------------------------------------------------------------------------------|
A|--------------------------------------------------------------------------------|
E|--------------------------------------------------------------------------------|

 guitar 2
e|-------------------------------------------------------------10--------------10-|
B|-----------------------------------11------13------12---13-----------10---------|
G|-----------------------9---13---------------------------------------------------|
D|10--------10------12------------------------------------------------------------|
A|-----13-------------------------------------------------------------------------|
E|--------------------------------------------------------------------------------|

==========

 guitar 1
e|29-------------------------|
B|---------------------------|
G|---------------------------|
D|---------------------------|
A|---------------------------|
E|---------------------------|

 guitar 2
e|13--------------15---------|
B|--------13--------------15-|
G|---------------------------|
D|---------------------------|
A|---------------------------|
E|---------------------------|

==========

Repeat while fading

 guitar 1
e|27-25-24---27-25-24-|
B|--------------------|
G|--------------------|
D|--------------------|
A|--------------------|
E|--------------------|

 guitar 2
e|27-25-24---27-25-24-|
B|--------------------|
G|--------------------|
D|--------------------|
A|--------------------|
E|--------------------|

Legend
------
* - deaden note
. - palm mute
x(#) - Repeat as indicated (x3 indicates repeating the riff twice more, etc.)
\/ - use tremolo bar
<> - pinch harmonic (bring the picking thumb across the string after picking note)
[] - natural harmonic (lightly rest fretting finger on string, then pick)
b - bend (16b19 would indicate bending the 16th fret to a pitch of the 19th fret,
          or a one and one half step bend)
h - hammer-on to indicated fret
p - pull-off to indicated fret
r - release (16b19r16 would indicate bending the 16th fret up one and one half step
             then releasing back to a 16th fret pitch) 
/ - slide up (higher in pitch)
\ - slide down (lower in pitch)
T - Tap note with pick or a picking hand finger
trm - tremolo pick
~ - vibrato
Добавлено: 13.08.2014
Другие материалы по этой песне:
  • Аккорды и текст

Страница создана 11.08.2014
http://primanota.ru/misc-computer-games/life-force-end-credits-chords.htm
Привет, Гость.
Предлагаем пройти революционный курс по гитаре.
Подарок от PrimaNota.Ru, забирай!