PrimaNota.ru - самый крупный в мире бесплатный архив песенных текстов, аккордов, табулатур и нот


Misc Computer Games - Life Force - Stage 2 Volcano - таба, бас-таба, видео

Регистрация Запомнить меня
Войти через:  Facebook Google Twitter Vk Yandex Mail.ru

Misc Computer Games - Life Force - Stage 2 Volcano - таба, бас-таба, видео

Печатать
Просмотров: 37
Life Force (NES) 1986
Stage 2 (Volcano)
The song is technically called "Starfield"
Tabbed by iloveamanda12

Such a great game. One of my all-time favorites! Typically, of NES and 8-bit games,
it has great and extremely catchy music, too.

I tried to lay this out symmetrically. It's difficult to a point, being that a 20 and a 7 don't line up,
for example. Enjoy!

  guitar 1
E|------15-20-------15-20-------15-20-------15-20-------16-20-------16-20-------16-20-------16-20|
B|---17----------17----------17----------17----------16----------16----------16----------16------|
G|17----------17----------17----------17----------17----------17----------17----------17---------|
D|-----------------------------------------------------------------------------------------------|
A|-----------------------------------------------------------------------------------------------|
E|-----------------------------------------------------------------------------------------------|

  guitar 2
E|-----------------------------------------------------------------------------------------------|
B|-----------------------------------------------------------------------------------------------|
G|-----------------------------------------------------------------------------------------------|
D|10---------------------------------------------------------------------------------------------|
A|------------------------------------------------10---------------------------------------------|
E|-----------------------------------------------------------------------------------------------|

==========

  guitar 1
E|---------18----------18----------18----------18--------15-20-------15-20------15-19-------15-19|
B|------18----------18----------18----------18-------15----------15----------15----------15------|
G|---19----------19----------19----------19-------17----------17----------16----------16---------|
D|20----------20----------20----------20---------------------------------------------------------|
A|-----------------------------------------------------------------------------------------------|
E|-----------------------------------------------------------------------------------------------|

  guitar 2
E|-----------------------------------------------------------------------------------------------|
B|-----------------------------------------------------------------------------------------------|
G|-----------------------------------------------------------------------------------------------|
D|-----------------------------------------------------------------------------------------------|
A|12-----------------------------------------------9---------------------------------------------|
E|-----------------------------------------------------------------------------------------------|

==========
This section repeats infinitely

  guitar 1
E|----------------15-------------------------------------------|   }
B|-------------------------------------------13-16-------------|   }
G|-------------17-------------------------13-------------------|   }
D|14-----15-17------------------13-----15----------------------|   }
A|-------------------------------------------------------------|   }
E|-------------------------------------------------------------|   }
                                                                   }
  guitar 2                                                         }
E|0---------------15--------------------------8-11-------------|   }
B|-------------13----------------------------------------------|   }
G|-------------------------------8-----10-12-------------------|   }
D|-------15-17-------------------------------------------------|   }
A|-------------------------------------------------------------|   }
E|-------------------------------------------------------------|   }
                                                                   }
==========                                                         }
                                                                   } x2
  guitar 1                                                         }
E|-------------------------------------------------------------|   }
B|----------------18-----16-----18--15-------------------------|   }
G|----------15-19------------------------16--------------------|   }
D|-------15-----------------------------------17-----15--------|   }
A|17-----------------------------------------------------------|   }
E|-------------------------------------------------------------|   }
                                                                   }
  guitar 2                                                         }
E|-------------10-13-----11-----13--10-------------------------|   }
B|----------11---------------------------12--------------------|   }
G|-------10-----------------------------------12-----10--------|   }
D|12-----------------------------------------------------------|   }
A|-------------------------------------------------------------|   }
E|-------------------------------------------------------------|   }
                                                                   
==========                                                         
                                                                   
  guitar 1
E|-------------------------------------------------------------|
B|-----------15---16-----15-----------------15---16-----15-----|
G|17---17-17----------------17---15---15-15----------------15--|
D|-------------------------------------------------------------|
A|-------------------------------------------------------------|
E|-------------------------------------------------------------|

  guitar 2
E|-------------------------------------------------------------|
B|-------------------------------------------------------------|
G|-8----8--8-10---12-----10--8----8----8--8-10---12-----10--8--|
D|-------------------------------------------------------------|
A|-------------------------------------------------------------|
E|-------------------------------------------------------------|

==========

  guitar 1
E|-------------------------------------------------------------|
B|-----------15---16-----15-----------------15---16-------14---|
G|13---13-13----------------13---12---12-12--------------------|
D|-------------------------------------------------------------|
A|-------------------------------------------------------------|
E|-------------------------------------------------------------|

  guitar 2
E|-------------------------------------------------------------|
B|-------------------------------------------------------------|
G|-8----8--8-10---12-----10--8-------8-8-10---12---13-----15---|
D|-------------------------------------------------------------|
A|-------------------------------------------------------------|
E|-------------------------------------------------------------|

==========

  guitar 1
E|-------------------------------------------------------------|
B|-----------15---16-----15-----------------15---16-----15-----|
G|17---17-17----------------17---15---15-15----------------15--|
D|-------------------------------------------------------------|
A|-------------------------------------------------------------|
E|-------------------------------------------------------------|

  guitar 2
E|11---11-11-13---15-----13--11--11---11--11-13--15-----13--11-|
B|-------------------------------------------------------------|
G|-------------------------------------------------------------|
D|-------------------------------------------------------------|
A|-------------------------------------------------------------|
E|-------------------------------------------------------------|

==========

  guitar 1
E|-------------------------------------------------20-----22---|
B|-----------15---16-----15-------------18---20----------------|
G|13---13-13----------------13------17-------------------------|
D|-------------------------------------------------------------|
A|-------------------------------------------------------------|
E|-------------------------------------------------------------|

  guitar 2
E|11---11-11-13---15-----13--11-------------------13------15---|
B|--------------------------------------13---15----------------|
G|----------------------------------12-------------------------|
D|-------------------------------------------------------------|
A|-------------------------------------------------------------|
E|-------------------------------------------------------------|

Legend
------
* - deaden note
. - palm mute
x(#) - Repeat as indicated (x3 indicates repeating the riff twice more, etc.)
\/ - use tremolo bar
<> - pinch harmonic (bring the picking thumb across the string after picking note)
[] - natural harmonic (lightly rest fretting finger on string, then pick)
b - bend (16b19 would indicate bending the 16th fret to a pitch of the 19th fret,
          or a one and one half step bend)
h - hammer-on to indicated fret
p - pull-off to indicated fret
r - release (16b19r16 would indicate bending the 16th fret up one and one half step
             then releasing back to a 16th fret pitch) 
/ - slide up (higher in pitch)
\ - slide down (lower in pitch)
T - Tap note with pick or a picking hand finger
trm - tremolo pick
~ - vibrato
Добавлено: 10.11.2014
Другие материалы по этой песне:
  • Аккорды и текст

Страница создана 01.08.2014
http://primanota.ru/misc-computer-games/life-force-stage-2-volcano-chords.htm
Привет, Гость.
Предлагаем пройти революционный курс по гитаре.
Подарок от PrimaNota.Ru, забирай!