PrimaNota.ru - самый крупный в мире бесплатный архив песенных текстов, аккордов, табулатур и нот


Misc Computer Games - Legend Of Dragoon - Royal Castle Bale - таба

Регистрация Запомнить меня
Войти через:  Facebook Google Twitter Vk Yandex Mail.ru

Misc Computer Games - Legend Of Dragoon - Royal Castle Bale - таба

Печатать
Просмотров: 103
     W                    W                   W                 
E||-------------------|--11----------------|-------------------|
B||--9----------------|--------------------|--8----------------|
G||-------------------|--------------------|-------------------|
D||-------------------|--------------------|-------------------|
A||-------------------|--------------------|-------------------|
E||-------------------|--------------------|-------------------|


  Q.     E  Q    Q       W                    Q     E  E   Q     E   E   
--6------5------------|-------------------|--11----10--8----------------|
------------8----6----|--8----------------|---------------11----10------|
----------------------|-------------------|-------------------------10--|
----------------------|-------------------|-----------------------------|
----------------------|-------------------|-----------------------------|
----------------------|-------------------|-----------------------------|


  W                   Q.     E  Q    Q       W                 
-------------------|--6------5------------|-------------------|
--8----------------|------------8----6----|--8----------------|
-------------------|----------------------|-------------------|
-------------------|----------------------|-------------------|
-------------------|----------------------|-------------------|
-------------------|----------------------|-------------------|


   Q     E  E   E  E   E   E      E   E  E  E   E  E   E  E   
--11----10--8------8--10--11--|--11--10--8---------8--10-----|
---------------11-------------|----------------11------------|
------------------------------|------------------------------|
------------------------------|------------------------------|
------------------------------|------------------------------|
------------------------------|------------------------------|


  H        H            E   E  E  E   E  E   E  E      H         H         
--------------------|--11--10--8---------8--10-----|--11--------13--------|
--6--------8--------|----------------11------------|----------------------|
--------------------|------------------------------|----------------------|
--------------------|------------------------------|----------------------|
--------------------|------------------------------|----------------------|
--------------------|------------------------------|----------------------|


   E   E  E  E   E  E   E  E     H        H         
--11--10--8---------8--10-----|--------------------|
----------------11------------|--6--------8--------|
------------------------------|--------------------|
------------------------------|--------------------|
------------------------------|--------------------|
------------------------------|--------------------|


   E   E  E  E   E  E   E  E      H         Q     Q        W                 
--11--10--8---------8--10-----|--11--------------------|--------------------|
----------------11------------|------------11----13----|--------------------|
------------------------------|------------------------|--12----------------|
------------------------------|------------------------|--------------------|
------------------------------|------------------------|--------------------|
------------------------------|------------------------|--------------------|


   W                    W                    Q     E  E   Q    Q     
--------------------|--------------------|--------------------------|
--------------------|--------------------|--11----10--8--------8----|
---L----------------|---L----------------|---------------10---------|
--------------------|--------------------|--------------------------|
--------------------|--------------------|--------------------------|
--------------------|--------------------|--------------------------|


   W                    Q    E   E  Q     E  E     H        Q.     E   
--------------------|--------8--10--8-----------|---------------------|
--11----------------|--11----------------11--8--|--L--------L------L--|
--------------------|---------------------------|---------------------|
--------------------|---------------------------|---------------------|
--------------------|---------------------------|---------------------|
--------------------|---------------------------|---------------------|


   W                   H        H           W                 
--10----------------|--------------------|-------------------|
--------------------|--------------------|-------------------|
--------------------|--------------------|-------------------|
--------------------|--5--------7--------|--8----------------|
--------------------|--------------------|-------------------|
--------------------|--------------------|-------------------|


  H        H           E  E  E  E  E  E  Q       H        H         
--------------------|-------------------------|--------------------|
--------------------|-------------------------|--------------------|
--------------------|-------------------------|--------------------|
--5--------7--------|--8--7--5-----5--7--8----|--5--------7--------|
--------------------|-------------------------|--------------------|
--------------------|-------------------------|--------------------|


  W                   H        H           W                  
-------------------|--------------------|-------------------||
-------------------|--------------------|-------------------||
-------------------|--------------------|-------------------||
--8----------------|--5--------7--------|--8----------------||
-------------------|--------------------|-------------------||
-------------------|--------------------|-------------------||




Melody Piano

     W                   W                   Q     E   Q.      E   E   
E||-------------------|-------------------|---------------------------|
B||-------------------|-------------------|-------15--11------13--11--|
G||-------------------|-------------------|---------------------------|
D||-------------------|-------------------|---------------------------|
A||-------------------|-------------------|---------------------------|
E||-------------------|-------------------|---------------------------|


   Q     E   Q.      T  T  S  E      E.  S  E   Q.      E   E   
---------------------------------|-----------------------------|
--11----13--10------10-11-10-----|---------15--11------13--11--|
-----------------------------12--|---L-------------------------|
---------------------------------|-----------------------------|
---------------------------------|-----------------------------|
---------------------------------|-----------------------------|


   E   E   E   E   E   Q.        Q     E   Q.      E   E   
--10--11--10------13--11------|---------------------------|
--------------13--------------|-------15--11------13--11--|
------------------------------|---------------------------|
------------------------------|---------------------------|
------------------------------|---------------------------|
------------------------------|---------------------------|


   Q     E   Q.      T  T  S  E      Q     E   Q.      E   E   
---------------------------------|----------------------------|
--11----13--10------10-11-10-----|--------15--11------13--11--|
-----------------------------12--|---L------------------------|
---------------------------------|----------------------------|
---------------------------------|----------------------------|
---------------------------------|----------------------------|


   E   E   E   E   E   Q.        Q     E   Q.      E   E   
--10--11--10------13---L------|---------------------------|
--------------13--------------|-------15--11------13--11--|
------------------------------|---------------------------|
------------------------------|---------------------------|
------------------------------|---------------------------|
------------------------------|---------------------------|


   Q     E   Q.      T  T  S  E      E.  S  E   Q.      E   E   
---------------------------------|-----------------------------|
--11----13--10------10-11-10--L--|---------15--11------13--11--|
-----------------------------12--|---L-------------------------|
---------------------------------|-----------------------------|
---------------------------------|-----------------------------|
---------------------------------|-----------------------------|


   E   E   E   E   E   Q.        Q     E   Q.      E   E   
--10--11--10------13--11------|---------------------------|
--------------13--------------|-------15--11------13--11--|
------------------------------|---------------------------|
------------------------------|---------------------------|
------------------------------|---------------------------|
------------------------------|---------------------------|


   Q     E   Q.      T  T  S  E      Q     E   Q.      E   E   
---------------------------------|----------------------------|
--11----13--10------10-11-10--L--|--------15--11------13--11--|
-----------------------------12--|---L------------------------|
---------------------------------|----------------------------|
---------------------------------|----------------------------|
---------------------------------|----------------------------|


   E   E   E   E   E   Q.        Q     T  T  S  E   Q     E   E   
--10--11--10------13---L------|----------------------------------|
--------------13--------------|-------10-11-10-----10----11--13--|
------------------------------|----------------12----------------|
------------------------------|----------------------------------|
------------------------------|----------------------------------|
------------------------------|----------------------------------|


   Q     E   E   E   E   E   E     Q     T  T  S  E   Q     E   E   
--10----------------------------|----------------------------------|
--------13--11--10--------------|-------10-11-10-----10----11--10--|
--------------------12--10--12--|----------------12----------------|
--------------------------------|----------------------------------|
--------------------------------|----------------------------------|
--------------------------------|----------------------------------|


   E   E   E   E   H           Q     T  T  S  E   Q     E   E   
----------------------------|----------------------------------|
----------------------------|-------10-11-10-----10----11--13--|
--12--10--------------------|----------------12----------------|
----------12--10--12--------|----------------------------------|
----------------------------|----------------------------------|
----------------------------|----------------------------------|


   E   E   E   E   E   E   E   E     Q     T  T  S  E   E   E   E   E   
--10------------------------------|--------------------------------10--|
------13--11--10--11--10----------|-------10-11-10-----10--------------|
--------------------------12--10--|----------------12------12--10------|
----------------------------------|------------------------------------|
----------------------------------|------------------------------------|
----------------------------------|------------------------------------|


   Q     E   E   H           E  S S E  E  E  E  E  E     Q.     E  E  Q.      
--------------------------|---------------------------|----------------------|
--------------------------|--4--3-1-------------------|----------------------|
--12--------10------------|---------3--2-----2--3--2--|--3------0--2--3------|
--------10------12--------|---------------------------|----------------------|
--------------------------|---------------------------|----------------------|
--------------------------|---------------------------|----------------------|


  E  S S E  E  E  E  E  E     Q    E  E  Q    Q       E  S S E  E  E  E  E  E   
---------------------------|-----------------------|---------------------------|
--4--3-1-------------------|-----------------------|--4--3-1-------------------|
---------3--2-----2--3--2--|--0----2--3--2----0----|---------3--2-----2--3--2--|
---------------------------|-----------------------|---------------------------|
---------------------------|-----------------------|---------------------------|
---------------------------|-----------------------|---------------------------|


  W                   E  S S E  E  E  E  E  E     Q.     H        E    
-------------------|---------------------------|---------------------||
-------------------|--4--3-1-------------------|---------------------||
--0----------------|---------3--2-----2--3--2--|--0------3--------L--||
-------------------|---------------------------|---------------------||
-------------------|---------------------------|---------------------||
-------------------|---------------------------|---------------------||




Harmony French Horn

     W                   W                   W                 
E||-------------------|-------------------|-------------------|
B||-------------------|-------------------|-------------------|
G||-------------------|-------------------|-------------------|
D||-------------------|-------------------|--5----------------|
A||-------------------|-------------------|-------------------|
E||-------------------|-------------------|-------------------|


  Q.     E  Q    Q       W                   Q    E  E  Q    E  E   
----------------------|-------------------|------------------------|
----------------------|-------------------|--4----3--1-------------|
--3------2------------|-------------------|-------------3----2-----|
------------5----3----|--5----------------|---------------------3--|
----------------------|-------------------|------------------------|
----------------------|-------------------|------------------------|


  W                   Q.     E  Q    Q       W                 
-------------------|----------------------|-------------------|
-------------------|----------------------|-------------------|
-------------------|--3------2------------|-------------------|
--5----------------|------------5----3----|--5----------------|
-------------------|----------------------|-------------------|
-------------------|----------------------|-------------------|


  Q    E  E  E  E  E  E     W                   Q.     E  Q    Q     
-------------------------|-------------------|----------------------|
--4----3--1-----1--3--4--|-------------------|----------------------|
-------------3-----------|--0----------------|--3------2------------|
-------------------------|-------------------|------------5----3----|
-------------------------|-------------------|----------------------|
-------------------------|-------------------|----------------------|


  W                   Q    E  E  Q    E  E     W                 
-------------------|------------------------|-------------------|
-------------------|--4----3--1-------------|-------------------|
-------------------|-------------3----2-----|-------------------|
--5----------------|---------------------3--|--5----------------|
-------------------|------------------------|-------------------|
-------------------|------------------------|-------------------|


  Q.     E  Q    Q       W                   Q    E  E  E  E  E  E   
----------------------|-------------------|-------------------------|
----------------------|-------------------|--4----3--1-----1--3--4--|
--3------2------------|-------------------|-------------3-----------|
------------5----3----|--5----------------|-------------------------|
----------------------|-------------------|-------------------------|
----------------------|-------------------|-------------------------|


  H        H           E  E  E  E  E  E  Q       H        H         
--------------------|-------------------------|--------------------|
-----------1--------|-------------------------|-----------1--------|
--3-----------------|--3--2-----------2--3----|--3-----------------|
--------------------|--------5-----5----------|--------------------|
--------------------|-------------------------|--------------------|
--------------------|-------------------------|--------------------|


  W                   H        H           Q.     Q    Q.      
-------------------|--------------------|---------------------|
--3----------------|-----------1--------|---------1-----------|
-------------------|--3-----------------|--3-----------3------|
-------------------|--------------------|---------------------|
-------------------|--------------------|---------------------|
-------------------|--------------------|---------------------|


  H        H           W                   H        H         
--------------------|-------------------|--------------------|
-----------1--------|--3----------------|-----------1--------|
--3-----------------|-------------------|--3-----------------|
--------------------|-------------------|--------------------|
--------------------|-------------------|--------------------|
--------------------|-------------------|--------------------|


  W                   H        H           W                 
-------------------|--------------------|-------------------|
--3----------------|--------------------|-------------------|
-------------------|--3--------2--------|-------------------|
-------------------|--------------------|--5----------------|
-------------------|--------------------|-------------------|
-------------------|--------------------|-------------------|


  H        H           W                   H        H         
--------------------|-------------------|--------------------|
-----------1--------|--3----------------|--------------------|
--3-----------------|-------------------|--3--------2--------|
--------------------|-------------------|--------------------|
--------------------|-------------------|--------------------|
--------------------|-------------------|--------------------|


  W                  
-------------------||
-------------------||
-------------------||
--5----------------||
-------------------||
-------------------||




Bass Piano

     W                   W                   E  Q.     E  Q.      
E||-------------------|-------------------|----------------------|
B||-------------------|-------------------|----------------------|
G||-------------------|-------------------|----------------------|
D||-------------------|-------------------|---------------3------|
A||-------------------|-------------------|-----5------1---------|
E||-------------------|-------------------|--3-------------------|


  E  Q.     E  Q.        E  Q.     E  Q.        Q    Q    Q    Q     
----------------------|----------------------|----------------------|
----------------------|----------------------|----------------------|
----------------------|----------------------|-------3--------------|
----------------------|---------------3------|--1-------------------|
-----3---------5------|-----5------1---------|------------5---------|
--1---------3---------|--3-------------------|-----------------1----|


  E  Q.     E  Q.        E  Q.     E  Q.        E  Q.     E  Q.      
----------------------|----------------------|----------------------|
----------------------|----------------------|----------------------|
----------------------|----------------------|----------------------|
---------------3------|----------------------|---------------3------|
-----5------1---------|-----3---------5------|-----5------1---------|
--3-------------------|--1---------3---------|--3-------------------|


  Q    Q    E  E  E  E     E  Q.     E  Q.        E  Q.     E  Q.      
------------------------|----------------------|----------------------|
------------------------|----------------------|----------------------|
-------3----------------|----------------------|----------------------|
--1------------3-----5--|---------------3------|----------------------|
------------1-----3-----|-----5------1---------|-----3---------5------|
------------------------|--3-------------------|--1---------3---------|


  E  Q.     E  Q.        Q    Q    Q    Q       E  Q.     E  Q.      
----------------------|----------------------|----------------------|
----------------------|----------------------|----------------------|
----------------------|-------3--------------|----------------------|
---------------3------|--1-------------------|---------------3------|
-----5------1---------|------------5---------|-----5------1---------|
--3-------------------|-----------------1----|--3-------------------|


  E  Q.     E  Q.        E  Q.     E  Q.        Q    Q    E  E  E  E   
----------------------|----------------------|------------------------|
----------------------|----------------------|------------------------|
----------------------|----------------------|-------3----------------|
----------------------|---------------3------|--1------------3-----5--|
-----3---------5------|-----5------1---------|------------1-----3-----|
--1---------3---------|--3-------------------|------------------------|


  H        H           H        H           H        H         
--------------------|--------------------|--------------------|
--------------------|--------------------|--------------------|
--------------------|--------------------|--------------------|
--1--------3--------|--5--------5--------|--1--------3--------|
--------------------|--------------------|--------------------|
--------------------|--------------------|--------------------|


  W                   H        H           H        H         
-------------------|--------------------|--------------------|
-------------------|--------------------|--------------------|
-------------------|--------------------|--------------------|
-------------------|--1--------3--------|--5--------5--------|
--5----------------|--------------------|--------------------|
-------------------|--------------------|--------------------|


  H        H           W                   H        H         
--------------------|-------------------|--------------------|
--------------------|-------------------|--------------------|
--------------------|-------------------|--------------------|
--1--------3--------|-------------------|--1--------3--------|
--------------------|--5----------------|--------------------|
--------------------|-------------------|--------------------|


  W                   H        H           W                 
-------------------|--------------------|-------------------|
-------------------|--------------------|-------------------|
-------------------|--------------------|-------------------|
--5----------------|--1--------3--------|--5----------------|
-------------------|--------------------|-------------------|
-------------------|--------------------|-------------------|


  H        H           W                   H        H         
--------------------|-------------------|--------------------|
--------------------|-------------------|--------------------|
--------------------|-------------------|--------------------|
--1--------3--------|--5----------------|--1--------3--------|
--------------------|-------------------|--------------------|
--------------------|-------------------|--------------------|


  W                  
-------------------||
-------------------||
-------------------||
--5----------------||
-------------------||
-------------------||




Bass Line

     W                   W                   W                 
G||-------------------|-------------------|-------------------|
D||-------------------|-------------------|-------------------|
A||-------------------|-------------------|-------------------|
E||-------------------|-------------------|--3----------------|


  H        H           W                   Q    Q    H         
--------------------|-------------------|---------------------|
--------------------|-------------------|--1------------------|
--1-----------------|-------------------|-------1-------------|
-----------3--------|--3----------------|------------3--------|


  W                   H        H           W                 
-------------------|--------------------|-------------------|
-------------------|--------------------|-------------------|
-------------------|--1-----------------|-------------------|
--3----------------|-----------3--------|--3----------------|


  H        Q    Q       W                   H        H         
---------------------|-------------------|--------------------|
--1------------------|-------------------|--------------------|
-----------1----3----|-------------------|--------------------|
---------------------|--3----------------|--1--------3--------|


  H        H           H        H           W                 
--------------------|--------------------|-------------------|
--1-----------------|--1--------3--------|-------------------|
--------------------|--------------------|-------------------|
-----------3--------|--------------------|--3----------------|


  H        H           H        H           H        H         
--------------------|--------------------|--------------------|
--------------------|--1-----------------|--1-----------------|
--------------------|--------------------|-----------1--------|
--1--------3--------|-----------3--------|--------------------|


  H        H           H        H           H        H         
--------------------|--------------------|--------------------|
--------------------|--0-----------------|--------------------|
-----------0--------|--------------------|-----------0--------|
--3-----------------|-----------3--------|--3-----------------|


  H        H           H        H           H        H         
--------------------|--------------------|--------------------|
--------------------|--------------------|--0-----------------|
--------------------|-----------0--------|--------------------|
--1--------1--------|--3-----------------|-----------3--------|


  H        H           W                   W                 
--------------------|-------------------|-------------------|
--------------------|--0----------------|-------------------|
-----------0--------|-------------------|-------------------|
--3-----------------|-------------------|--3----------------|


  W                   W                   H        H         
-------------------|-------------------|--------------------|
-------------------|-------------------|--------------------|
--1----------------|-------------------|--1-----------------|
-------------------|--3----------------|-----------3--------|


  W                   W                   W                 
-------------------|-------------------|-------------------|
-------------------|-------------------|-------------------|
-------------------|--1----------------|-------------------|
--3----------------|-------------------|--3----------------|


  W                  
-------------------||
-------------------||
--1----------------||
-------------------||

(Copied and pasted from www.gametab.net)
Добавлено: 25.08.2013
Другие материалы по этой песне:
  • Аккорды и текст

Страница создана 25.08.2013
http://primanota.ru/misc-computer-games/legend-of-dragoon-royal-castle-bale-chords.htm
Привет, Гость.
Предлагаем пройти революционный курс по гитаре.
Подарок от PrimaNota.Ru, забирай!