PrimaNota.ru - самый крупный в мире бесплатный архив песенных текстов, аккордов, табулатур и нот


Misc Computer Games - Hyper Light Drifter - Panacea End Credits - таба

Регистрация Запомнить меня
Войти через:  Facebook Google Twitter Vk Yandex Mail.ru

Misc Computer Games - Hyper Light Drifter - Panacea End Credits - таба

Печатать
Просмотров: 85
Новый альбом группы 'Черный Кузнец' по культовому сериалу 'Сверхъестественное'!
This song is played with the D string tuned to C#. 
Original song can be found here: https://www.youtube.com/watch?v=_YktH0fIEcQ
e |---------4--|----4---|----------|----------4|--------4|-3-6-1-3----------|-------6--------|
B |-----2---2--|2---2---|----------|--1-2-1-2--|--1-2-1--|---------4---4-2-1|---------6------|
G |-----1------|1-------|----------|-1---------|---------|-----------1------|-1-0---------6-4|
C#|0----0------|0-------|0-2--2--0-|0----------|0--------|-2---------2------|-----0-----0----|
A |------------|--------|----------|-----------|---------|------------------|----------------|
E |------------|--------|----------|-----------|---------|------------------|----------------|
                                slower here
e |--4-4-6--2-4|-----------------|------------|6--4--------|1-1-1-1-1-1-1|3-3-3-3|1-1-1-1|
B |--------4---|-----0-4-----0-4-|-------0--4-|-------4----|2-2-2-2-2-2-2|2-2-2-2|2-2-2-2|
G |------------|-1---------------|------------|----------6-|1-1-1-1-1-1-1|3-3-3-3|3-3-3-3|
C#|2---2------2|---2-------2-----|----2-------|2--2---0----|-0-0-0-0-0-0-|3-3-3-3|3-3-3-3|
A |------------|-----------------|------------|------------|-------------|2-2-2-2|2-2-2-2|
E |------------|-0-------0-------|-0----------|------------|-------------|-------|-------|
                                    faster  slower                               strum down
e |--------|--------------|----------------|------------|----------|----------|-0---6-----|
B |--------|--------------|-----0-4-----0-4|-------0--4-|0--2------|0--4------|-----7-----|
G |5-5-5-5-|4-4-4-4-------|----------------|------------|1--1---3--|1--1----3-|-----8-----|
C#|7-7-7-7-|5-5-5-5---5---|---2-------2----|----2-------|3--3---3--|3--3----3-|----10-----|
A |6-6-6-6-|6-6-6-6-6---6-|----------------|------------|----------|----------|-----------|
E |--------|--------------|-0-------0------|-0----------|----------|----------|-----------|

e |11-7-6-----------------|
B |-------7-4-0-----------|
G |-------------3---------|
C#|---------------5-2-----|
A |----------------------2|
E |-------------------2---|
Добавлено: 23.05.2018
Другие материалы по этой песне:
  • Аккорды и текст

Страница создана 23.05.2018
http://primanota.ru/misc-computer-games/hyper-light-drifter-panacea-end-credits-chords.htm
Привет, Гость.
Предлагаем пройти революционный курс по гитаре.
Подарок от PrimaNota.Ru, забирай!