PrimaNota.ru - самый крупный в мире бесплатный архив песенных текстов, аккордов, табулатур и нот


Misc Computer Games - Kerning City Theme - таба, видео

Регистрация Запомнить меня
Войти через:  Facebook Google Twitter Vk Yandex Mail.ru

Misc Computer Games - Kerning City Theme - таба, видео

Печатать
Просмотров: 78
Новый альбом группы 'Черный Кузнец' по культовому сериалу 'Сверхъестественное'!
https://www.youtube.com/watch?v=mD2b0Xx7wPA




Rhythm:

At 0:12 this rhythm part is played and is played the whole song through.

e-----------------------------------------------------------
b-----------------------------------------------------------
g-----------------------------------------------------------
D-----------------------------------------4b----------------
A-------------5---7-------5-------5---7--------5---7---5----
E-7---5---7-----------7-------7----------------------------7

e-----------------------------------------------------------
b-----------------------------------------------------------
g----------------------------------------------2------------
D-----------------------------------------4b-------2---0----
A-------------5---7-------5-------5---7--------------------2
E-7---5---7-----------7-------7-----------------------------


Lead piano parts:

0:23

e-7---5---7---5---4---2-------------------4-----------------
b-7---5---7---5---5---x---3~------5---7---------------------
g---------------------4-----------------------7---9p7-------
D-------------------------------------------------------9---
A-----------------------------------------------------------
E-----------------------------------------------------------

0:30

e-----------------------------------------------------------
b-----------------------------------------------------------
g---------7---9-------7-------7---9-------------------------
D-7---9-----------9-------9---------------------------------
A-----------------------------------------------------------
E-----------------------------------------------------------

0:34

e-7---5---7---5---4---2-------------------4-----------------
b-7---5---7---5---5---x---3~------5---7---------------------
g---------------------4-----------------------7---9p7-------
D-------------------------------------------------------9---
A-----------------------------------------------------------
E-----------------------------------------------------------


0:40

e-----------------------------------------------------------
b-----------------------------------------------------------
g---------7---9-------7-------7---9--------------9----------
D-7---9-----------9-------9---------------------------------
A-----------------------------------------------------------
E-----------------------------------------------------------
PLAYED RIGHT AFTER EACHOTHER
e-----------------------------------------------------------
b-7---10-----7--------9------7--------10---7--------11------
g---------9---------------------10------------10------------
D-----------------------------------------------------------
A-----------------------------------------------------------
E-----------------------------------------------------------

0:44

e-7---5---7---5---4---2-------------------4-----------------
b-7---5---7---5---5---x---3~------5---7---------------------
g---------------------4-----------------------7---9p7-------
D-------------------------------------------------------9---
A-----------------------------------------------------------
E-----------------------------------------------------------

0:50

e-------------------------------------------5---------------
b--------------------------------------s7-------5-----------
g---------7---9-------7-------7---9-----------------7p4-----
D-7---9-----------9-------9---------------------------------
A-----------------------------------------------------------
E-----------------------------------------------------------

0:55

e-7---5---7---5---4---2-------------------4-----------------
b-7---5---7---5---5---x---3~------5---7---------------------
g---------------------4-----------------------7---9p7-------
D-------------------------------------------------------9---
A-----------------------------------------------------------
E-----------------------------------------------------------

1:00

e-----------------------------------------------------------
b-----------------------------------------------------------
g---------7---9-------7-------7---9--------------9----------
D-7---9-----------9-------9---------------------------------
A-----------------------------------------------------------
E-----------------------------------------------------------
PLAYED RIGHT AFTER EACHOTHER
e-----------------------------------------------------------
b-7---10-----7--------9------7--------10---7--------11------
g---------9---------------------10------------10------------
D-----------------------------------------------------------
A-----------------------------------------------------------
E-----------------------------------------------------------

1:05

e-7---7---5---7---5---4-------------------------------------
b-7---7---7---7---5---5-------5---7p5h7p5-------5---7-------
g-------------------------7-----------------7-----------7---
D-----------------------------------------------------------
A-----------------------------------------------------------
E-----------------------------------------------------------

1:10

e----------------------------------------------------5----------
b-------------------------------------------7---s7-------5------
g-7-------------------------7-------7---9--------------------7p4
D-----7h9---7---9---6---9-------9-------------------------------
A---------------------------------------------------------------
E---------------------------------------------------------------

1:15

e-7---5---7---5---4---2-------------------4-----------------
b-7---5---7---5---5---x---3~------5---7---------------------
g---------------------4-----------------------7---9p7-------
D-------------------------------------------------------9---
A-----------------------------------------------------------
E-----------------------------------------------------------

1:22

e-----------------------------------------------------------
b-----------------------------------------------------------
g---------7---9-------7-------7---9--------------9----------
D-7---9-----------9-------9---------------------------------
A-----------------------------------------------------------
E-----------------------------------------------------------
PLAYED RIGHT AFTER EACHOTHER
e-----------------------------------------------------------
b-7---10-----7--------9------7--------10---7--------11------
g---------9---------------------10------------10------------
D-----------------------------------------------------------
A-----------------------------------------------------------
E-----------------------------------------------------------

1:27

e-7---5---7---5---4---2-------------------4-----------------
b-7---5---7---5---5---x---3~------5---7---------------------
g---------------------4-----------------------7---9p7-------
D-------------------------------------------------------9---
A-----------------------------------------------------------
E-----------------------------------------------------------

1:33

e-----------------------------------------------------------
b-----------------------------------------------------------
g---------7---9-------7-------7---9--------------9----------
D-7---9-----------9-------9---------------------------------
A-----------------------------------------------------------
E-----------------------------------------------------------
PLAYED RIGHT AFTER EACHOTHER
e-----------------------------------------------------------
b-7---10-----7--------9------7--------10---7--------11------
g---------9---------------------10------------10------------
D-----------------------------------------------------------
A-----------------------------------------------------------
E-----------------------------------------------------------


1:38

e-7---5---7---5---4---2-------------------4-----------------
b-7---5---7---5---5---x---3~------5---7---------------------
g---------------------4-----------------------7---9p7-------
D-------------------------------------------------------9---
A-----------------------------------------------------------
E-----------------------------------------------------------

1:43

e-----------------------------------------------------------
b-----------------------------------------------------------
g---------7---9-------7-------7---9--------------9----------
D-7---9-----------9-------9---------------------------------
A-----------------------------------------------------------
E-----------------------------------------------------------
PLAYED RIGHT AFTER EACHOTHER
e-----------------------------------------------------------
b-7---10-----7--------9------7--------10---7--------11------
g---------9---------------------10------------10------------
D-----------------------------------------------------------
A-----------------------------------------------------------
E-----------------------------------------------------------

1:48

There are 2 keyboards used in this part. these are played at the same time till 2:08

                      \_/ This note is impossible to play on your own you wil not be able to ring it out.
e----------------------7~-----------------------------------   You need 2 guitars.
b-7---7---9---9---11----------------------------------------
g-----------------------------7---9p7h9p7---7---9p7h9p7-----
D-------------------------9---------------------------------
A-----------------------------------------------------------
E-----------------------------------------------------------
THESE ARE PLAYED TOGHETER
e-----------------------------------------------------------
b-----------------------------------------------------------
g----------------------7------------------------------------
D-8---8---9---9---11----------------------------------------
A-----------------------------------------------------------
E-----------------------------------------------------------




2:30

e-7---5---7---5---4---2-------------------------------------
b-7---5---7---5---5---x-------------------------------------
g---------------------4-------------------------------------
D-----------------------------------------------------------
A-----------------------------------------------------------
E-----------------------------------------------------------

2:36

e-----------------------------------------------------------
b-----------------------------------------------------------
g-----------------7---9-------7-------7h8h9-----------------
D-7---9---7---9-----------9-------9-------------------------
A-----------------------------------------------------------
E-----------------------------------------------------------


2:41

e-7---5---7---5---4---2-------------------------------------
b-7---5---7---5---5---x-------------------------------------
g---------------------4-------------------------------------
D-----------------------------------------------------------
A-----------------------------------------------------------
E-----------------------------------------------------------

2:46

e-----------------------------------------------------------
b-----------------------------------------------------------
g---------7---9-------7-------7---9--------------9----------
D-7---9-----------9-------9---------------------------------
A-----------------------------------------------------------
E-----------------------------------------------------------
PLAYED RIGHT AFTER EACHOTHER
e-----------------------------------------------------------
b-7---10-----7--------9------7--------10---7--------11------
g---------9---------------------10------------10------------
D-----------------------------------------------------------
A-----------------------------------------------------------
E-----------------------------------------------------------

2:52

e-7---5---7---5---4---2-------------------4-----------------
b-7---5---7---5---5---x---3~------5---7---------------------
g---------------------4-----------------------7---9p7-------
D-------------------------------------------------------9---
A-----------------------------------------------------------
E-----------------------------------------------------------

2:58

e-----------------------------------------------------------
b-----------------------------------------------------------
g---------7---9-------7-------7---9--------------9----------
D-7---9-----------9-------9---------------------------------
A-----------------------------------------------------------
E-----------------------------------------------------------
PLAYED RIGHT AFTER EACHOTHER
e-----------------------------------------------------------
b-7---10-----7--------9------7--------10---7--------11------
g---------9---------------------10------------10------------
D-----------------------------------------------------------
A-----------------------------------------------------------
E-----------------------------------------------------------

3:03

e-7---5---7---5---4---2-------------------4-----------------
b-7---5---7---5---5---x---3~------5---7---------------------
g---------------------4-----------------------7---9p7-------
D-------------------------------------------------------9---
A-----------------------------------------------------------
E-----------------------------------------------------------

3:09

e-----------------------------------------------------------
b-----------------------------------------------------------
g---------7---9-------7-------7---9--------------9----------
D-7---9-----------9-------9---------------------------------
A-----------------------------------------------------------
E-----------------------------------------------------------
PLAYED RIGHT AFTER EACHOTHER
e-----------------------------------------------------------
b-7---10-----7--------9------7--------10---7--------11------
g---------9---------------------10------------10------------
D-----------------------------------------------------------
A-----------------------------------------------------------
E-----------------------------------------------------------

Outro is bass









Добавлено: 23.05.2018
Другие материалы по этой песне:
  • Аккорды и текст

Страница создана 23.05.2018
http://primanota.ru/misc-computer-games/kerning-city-theme-chords.htm
Привет, Гость.
Предлагаем пройти революционный курс по гитаре.
Подарок от PrimaNota.Ru, забирай!