PrimaNota.ru - самый крупный в мире бесплатный архив песенных текстов, аккордов, табулатур и нот


Misc Computer Games - Fire Emblem - Black Fang - таба, видео

Регистрация Запомнить меня
Войти через:  Facebook Google Twitter Vk Yandex Mail.ru

Misc Computer Games - Fire Emblem - Black Fang - таба, видео

Печатать
Просмотров: 81
Новый альбом группы 'Черный Кузнец' по культовому сериалу 'Сверхъестественное'!
(Guitar 1)
e|----------------------------|----------------------------|
B|----------------------------|----------------------------|
G|----------5-7---5-----7-5---|----------5-7---5-----8-7-5-|
D|8-7-5-7-8-----8---8-7-----7-|8-7-5-7-8-----8---8-6-------|  (x2)
A|----------------------------|----------------------------|
E|----------------------------|----------------------------|

(Guitar 2)
e|3-------3-------3-------3-3-|3-------3---3-3-4-------4-4-|
B|3-------3-------3-------3-3-|3-------3---3-3-4-------4-4-|
G|----------------------------|----------------------------|
D|----------------------------|----------------------------|  (x2)
A|----------------------------|----------------------------|
E|----------------------------|----------------------------|

(Guitar 1)
e|--------------------------------------|----------------------------------|
B|--------------------------------------|----------------------------------|
G|--------------8-10----8-------10-8----|-----------8-10----8------11-10-8-|
D|11-10-8-10-11------11---11-10------11-|10-8-10-11------11---11-9---------|
A|--------------------------------------|----------------------------------|
E|--------------------------------------|----------------------------------|

(Guitar 3)
e|--------1-------------------|----------------------------|
B|----------------4-------1---|2-------1-------------------|
G|----------------------------|------------1---3---1-------|
D|----------------------------|------------------------4---|
A|----------------------------|----------------------------|
E|----------------------------|----------------------------|

(Guitar 2)
e|6-------6-------6-------6-6-|6-------6---6-6-7-------7-7-|
B|6-------6-------6-------6-6-|6-------6---6-6-7-------7-7-|
G|----------------------------|----------------------------|
D|----------------------------|----------------------------|
A|----------------------------|----------------------------|
E|----------------------------|----------------------------|

(Guitar 1)
e|--------------------------------------|----------------------------------|
B|--------------------------------------|----------------------------------|
G|--------------8-10----8-------10-8----|-----------8-10----8--------------|
D|11-10-8-10-11------11---11-10------11-|10-8-10-11------11---11-9-8-12-10-|
A|--------------------------------------|----------------------------------|
E|--------------------------------------|----------------------------------|

(Guitar 3)
e|--------1-------------------|----------------------------|
B|----------------4-------1---|2-------1-------------------|
G|----------------------------|------------1---3---1-------|
D|3---------------------------|------------------------3---|
A|----------------------------|----------------------------|
E|----------------------------|----------------------------|

(Guitar 2)
e|6-------6-------6-------6-6-|6-------6---6-6-4-------4-4-|
B|6-------6-------6-------6-6-|6-------6---6-6-4-------4-4-|
G|----------------------------|----------------------------|
D|----------------------------|----------------------------|
A|----------------------------|----------------------------|
E|----------------------------|----------------------------|

(Guitar 1)
e|----------------------------|----------------------------|
B|----------------------------|----------------------------|
G|----------5-7---5-----7-5---|----------5-7---5-----8-7-5-|
D|8-7-5-7-8-----8---8-7-----7-|8-7-5-7-8-----8---8-6-------|  
A|----------------------------|----------------------------|
E|----------------------------|----------------------------|

(Guitar 3)
e|----------------------------|----------------------------|
B|--------3-------4-------1---|3---------------------------|
G|0---------------------------|--------3---0---1-----------|
D|----------------------------|------------------------3---|
A|----------------------------|----------------------------|
E|----------------------------|----------------------------|

(Guitar 2)
e|3-------3-------3-------3-3-|3-------3---3-3-4-------4-4-|
B|3-------3-------3-------3-3-|3-------3---3-3-4-------4-4-|
G|----------------------------|----------------------------|
D|----------------------------|----------------------------|  
A|----------------------------|----------------------------|
E|----------------------------|----------------------------|

(Guitar 1) 
e|----------------------------|----------------------------|
B|----------------------------|----------------------------|
G|----------5-7---5-----7-5---|----------5-7---5-----8-7-5-|
D|8-7-5-7-8-----8---8-7-----7-|8-7-5-7-8-----8---8-6-------|  
A|----------------------------|----------------------------|
E|----------------------------|----------------------------|

(Guitar 3)
e|----------------------------|----------------------------|
B|--------3-------4-------1---|3-----------------------1-2-|
G|0---------------------------|--------3-----------1-3-----|
D|----------------------------|----------------------------|
A|----------------------------|----------------------------|
E|----------------------------|----------------------------|

(Guitar 2)
e|3-------3-------3-------3-3-|3-------3---3-3-4-------4-4-|
B|3-------3-------3-------3-3-|3-------3---3-3-4-------4-4-|
G|----------------------------|----------------------------|
D|----------------------------|----------------------------|  
A|----------------------------|----------------------------|
E|----------------------------|----------------------------|

(Guitar 1)
e|--------------------------------------|----------------------------------|
B|--------------------------------------|----------------------------------|
G|--------------8-10----8-------10-8----|-----------8-10----8------11-10-8-|
D|11-10-8-10-11------11---11-10------11-|10-8-10-11------11---11-9---------|
A|--------------------------------------|----------------------------------|
E|--------------------------------------|----------------------------------|

(Guitar 3)
e|1-----------1-------------|----------------1-4-2-1-------|
B|----------------4---2---1-|--2-----------1---------4-2-4-|
G|--------3-----------------|----------3-------------------|
D|--------------------------|------------------------------|
A|--------------------------|------------------------------|
E|--------------------------|------------------------------|

(Guitar 2)
e|6-------6-------6-------6-6-|6-------6---6-6-7-------7-7-|
B|6-------6-------6-------6-6-|6-------6---6-6-7-------7-7-|
G|----------------------------|----------------------------|
D|----------------------------|----------------------------|
A|----------------------------|----------------------------|
E|----------------------------|----------------------------|

(Guitar 1)
e|--------------------------------------|----------------------------------|
B|--------------------------------------|----------------------------------|
G|--------------8-10----8-------10-8----|-----------8-10----8--------------|
D|11-10-8-10-11------11---11-10------11-|10-8-10-11------11---11-9-8-12-10-|
A|--------------------------------------|----------------------------------|
E|--------------------------------------|----------------------------------|

(Guitar 3)
e|1-----------1-------------|----------------1-4-3---------|
B|----------------4---2---1-|--2-----------1-------4-6-4-1-|
G|--------3-----------------|----------3-------------------|
D|--------------------------|------------------------------|
A|--------------------------|------------------------------|
E|--------------------------|------------------------------|

(Guitar 2)
e|6-------6-------6-------6-6-|6-------6---6-6-4-------4-4-|
B|6-------6-------6-------6-6-|6-------6---6-6-4-------4-4-|
G|----------------------------|----------------------------|
D|----------------------------|----------------------------|
A|----------------------------|----------------------------|
E|----------------------------|----------------------------|

(Guitar 3)
e|--------------------------|------------------------------|
B|3-------------------------|------------------------------|
G|--------------------------|------------------------------|
D|--------------------------|------------------------------|
A|--------------------------|------------------------------|
E|--------------------------|------------------------------|
Добавлено: 23.05.2018
Другие материалы по этой песне:
  • Аккорды и текст

Страница создана 23.05.2018
http://primanota.ru/misc-computer-games/fire-emblem-black-fang-chords.htm
Привет, Гость.
Предлагаем пройти революционный курс по гитаре.
Подарок от PrimaNota.Ru, забирай!