PrimaNota.ru - самый крупный в мире бесплатный архив песенных текстов, аккордов, табулатур и нот


Misc Computer Games - Frogger - Start Song - таба, видео

Регистрация Запомнить меня
Войти через:  Facebook Google Twitter Vk Yandex Mail.ru

Misc Computer Games - Frogger - Start Song - таба, видео

Печатать
Просмотров: 44
Новый альбом группы 'Черный Кузнец' по культовому сериалу 'Сверхъестественное'!
E  E  E  E  E  E  E  E    E  E  E  E  E E  E E
e|-14----------14----------|-15-15-14-14-----------|
B|----15-15-15----15-15-15-|-------------17--------|
G|-------------------------|-----------------------|
D|-------------------------|-----------------------|
A|-------------------------|-----------------------|
E|-------------------------|-----------------------|

    E  E  E  E  E  E  E  E    E  E  E  E  E E  E E
e|-------------------------|-----------------------|
B|-------------------------|-----------------------|
G|--7--7-----7--7--7-------|--9--9-----9--9-9----9-|
D|--------7-----------7--9-|--------9--------------|
A|-------------------------|------------------10---|
E|-------------------------|-----------------------|

    E  E  E  E  E  E  E  E    E  E  E  E  E  E Q
e|-15-15-14-14-------19-19-|-17-15-14-------------|
B|-------------17-17-------|----------17-15-15----|
G|-------------------------|----------------------|
D|-------------------------|----------------------|
A|-------------------------|----------------------|
E|-------------------------|----------------------|

 |  E  E  E  E  E  E  E  E    E  E  E  E  E  E Q
e|-------------------------|----------------------|
B|-------------------------|----------------------|
G|--9--9-----9--9--9-----9-|--9--9-----9--7-------|
D|--------9----------------|--------9-------------|
A|-------------------10----|----------------------|
E|-------------------------|----------------------|
Добавлено: 23.05.2018
Другие материалы по этой песне:

Страница создана 23.05.2018
http://primanota.ru/misc-computer-games/frogger-start-song-chords.htm
Привет, Гость.
Предлагаем пройти революционный курс по гитаре.
Подарок от PrimaNota.Ru, забирай!