PrimaNota.ru - самый крупный в мире бесплатный архив песенных текстов, аккордов, табулатур и нот


Misc Computer Games - Donkey Kong 3 - Level 2 Donkey Kong Falls - таба, видео

Регистрация Запомнить меня
Войти через:  Facebook Google Twitter Vk Yandex Mail.ru

Misc Computer Games - Donkey Kong 3 - Level 2 Donkey Kong Falls - таба, видео

Печатать
Просмотров: 145
Уроки эстрадного вокала в Санкт-Петербурге
level 2 donkey kong falls


donkey kong 3

TRANSCRIBED BY RUDY GUZMAN

guzman_84@hotmail.com


                                           
e:----------------------------7--------------7------|
B:----------12--------------8---8----------8---8----|
G:-------12----12---------7-------7------7--------7-|
D:----12----------12----9-------------10------------|
A:-10-----------------------------------------------|
E:--------------------------------------------------|



e:--------7---------------------------------------|
B:------8---8------0---0--------------------------|
G:----7-------7----0---0--------------------------|
D:-11---------------------------------------------|
A:------------------------------------------------|
E:-----------------11--10h11p10h11p10h11p10h11p10-|



hillo son mex


7/04/11
Добавлено: 25.05.2012
Другие материалы по этой песне:
  • Аккорды и текст

Страница создана 25.05.2012
http://primanota.ru/misc-computer-games/donkey-kong-3-level-2-donkey-kong-falls-chords.htm
Привет, Гость.
Предлагаем пройти революционный курс по гитаре.
Подарок от PrimaNota.Ru, забирай!