PrimaNota.ru - самый крупный в мире бесплатный архив песенных текстов, аккордов, табулатур и нот


Misc Computer Games - Donkey Kong Country - Jungle Hijinx Theme - бас-таба, видео

Регистрация Запомнить меня
Войти через:  Facebook Google Twitter Vk Yandex Mail.ru

Misc Computer Games - Donkey Kong Country - Jungle Hijinx Theme - бас-таба, видео

Печатать
Просмотров: 131
Уроки эстрадного вокала в Санкт-Петербурге
-------------------------------------------------------------------
	  JUNGLE LEVEL VERSION 2 – Super Smash Bros. Brawl
-------------------------------------------------------------------

Tabbed By : MunkyZero
e-mail: munky.zero@yahoo.com

This tab is for an alternate version of the Jungle Hijinx theme originally from Donkey 
Kong Country simply called "Jungle Level Ver. 2", which is featured in Super Smash Bros. Brawl.

Tuning: Drop D

G|-----------------------------------------------------------------|
D|-----------------------------------------------------------------|
A|-----------------------------------------------------------------|
D|-7-------7-----------------------7-------7---------------5--7-8--|

G|-----------------------------------------------------------------|
D|-----------------------------------------------------------------|
A|-----------------------------------------------------------------|
D|-7-------7-----------------------7-------7-----------------------|

G|-----------------------------------------------------------------|
D|-----------------------------------------------------------------|
A|-----------------------------------------------------------------|
D|-5-------5-----------------------5-------5---------------5--7-8--|

G|-----------------------------------------------------------------|
D|-----------------0-------------------------------0---------------|
A|-0-------0-----------------------0-------0-----------------------|
D|-----5-------2-------6---2---0-------5-------2-------6---2---0---|

G|-----------------------------------------------------------------|
D|-----0-------------------------------0---------------------------|
A|---------3-------2-----------2-----------3-------2-----------2---|
D|-5-----------5-------5---2-------5-----------5-------5---2-------|

G|-----------------------------------------------------------------|
D|-----------------------------------------------------------------|
A|-0---0---------------------------0---0---------------3-2---0-----|
D|---------2---2---3---3-5---3-5-----------2---2---3-----------5---|

G|-----------------------------------------------------------------|
D|-----------------------------------------------------------------|
A|-0---0---------------------------0---0---------------3-2---0-----|
D|---------2---2---3---3-5---3-5-----------2---2---3-----------5---|

G|-----------------------------------------------------------------|
D|-----------------------------------------------------------------|
A|-0---0-----------0-0-------------0---0---3---3---2-------0---2---|
D|---------2---2-------2---3---5-----------------------5-----------|

G|-----------------------------------------------------------------|
D|-----------------------------------------------------------------|
A|-------------------------0---2-----------0---2---0---------------|
D|-2---2---6---6---2-2-6-----------2---6---------------2---3---5---|

G|-----------------------------------------------------------------|
D|-----------------------------------------------------------------|
A|-0---0-----------0-0-------------0---0---3---3---2-------0---2---|
D|---------2---2-------2---3---5-----------------------5-----------|

G|-----------------------------------------------------------------|
D|-----------------------------------------------------------------|
A|-------------------------0---2-----------0---2---0-------0-------|
D|-2---2---6---6---2-2-6-----------2---6---------------2-----------|

(Drum thingy)

G|-----------------------------------------------------------------|
D|-----------------------------------------------------------------|
A|---------------------------------0-------------------------------|
D|-2---------------2---3---5---6-----------------------------------|
Добавлено: 18.05.2012
Другие материалы по этой песне:
  • Аккорды и текст

Страница создана 18.05.2012
http://primanota.ru/misc-computer-games/donkey-kong-country-jungle-hijinx-theme-chords.htm
Привет, Гость.
Предлагаем пройти революционный курс по гитаре.
Подарок от PrimaNota.Ru, забирай!