PrimaNota.ru - самый крупный в мире бесплатный архив песенных текстов, аккордов, табулатур и нот


Misc Computer Games - Final Fantasy Ix - таба, видео

Регистрация Запомнить меня
Войти через:  Facebook Google Twitter Vk Yandex Mail.ru

Misc Computer Games - Final Fantasy Ix - таба, видео

Печатать
Просмотров: 106
This is the Tab to the opening theme to Final Fantasy IX.  There are two guitar parts; the first plays distinct notes while the second plays the chords.  Once you get the hang of it, you'll find it very easy to play.

(x) = only play on the last time
Guitar 1 Intro

E------------------------------------------------------------
B------------------0h1p0-----------------------------------
G----------0-2--------------2--0--0-2---------------------
D-0--2-3---------------------------------3-2-0---0-2-----
A----------------------------------------------------------3
E------------------------------------------------------------
G2            D             A           B     G              F                   C

	E-------------------------------------------------------------
	B----------------0h1p0--------------------------------------
	G----------0-2----------2p1---2---0-2---------------------
	D-0--2-3--------------------------3-------------------------
	A-------------------------------------------------------------
	E--------------------------------------------------------------
	    D              A        B     AÙA       A

        E--------------------------------------------------------------
	B-----------------0h1p0-------------------------------------
	G-----------0-2----------2-0---0-2----------------0--------
	D-0--2-3------------------------------3-2-0----3----3-2-0
	A----------------------------------------------3--------------
	E--------------------------------------------------------------
	     D              A         B    G            F            F            D

	E--------------------------------------------------------------
	B--------------------------------------------------------------
	G---2-----0---------------------------------------------------
	D-3---2-----2---3~----3-0----------------------------------
	A--------------------------5------4p0h2---------------------
	E--------------------------------------------------------------








Bridge (Guitar 1 Solo)

	E--------------------------------------------------------------
	B---3-----3p1---0-----------------------0---1~--1---------
	G------2-----------2---0---2-----0---2----------------------
	D-------------------------------3-----------------------------
	A--------------------------------------------------------------
	E--------------------------------------------------------------

	E--------------------------------------------------------------
	B---3-----3p1---0-------------------------------------------
	G------2-----------2---0---2---2----------------------------
	D-------------------------------3---2---0----0---------------
	A------------------------------------------4-(5)--------------
	E--------------------------------------------------------------


G the song goes like this:

Intro
Bridge X2
Outro (Same as Intro)
     
Добавлено: 17.08.2013
Другие материалы по этой песне:
  • Аккорды и текст

Страница создана 03.08.2013
http://primanota.ru/misc-computer-games/final-fantasy-ix-chords.htm
Привет, Гость.
Предлагаем пройти революционный курс по гитаре.
Подарок от PrimaNota.Ru, забирай!