PrimaNota.ru - самый крупный в мире бесплатный архив песенных текстов, аккордов, табулатур и нот


Misc Cartoons - Spooky Scary Skeletons Theme - таба

Регистрация Запомнить меня
Войти через:  Facebook Google Twitter Vk Yandex Mail.ru

Misc Cartoons - Spooky Scary Skeletons Theme - таба

Печатать
Просмотров: 220
-------------------------------------------------------------------------------
                             SPOOKY SCARY SKELETONS
-------------------------------------------------------------------------------
Tabbed by: TheGreatGetzby

Tuning:e standard

This is all I could figure out and there probably are mistakes in there
e|---------------------------------------------------------------------------|
B|---------------------------------------------------------------------------|
G|-------12-12-11-11---------- 12-12-11-11-----------------------------------|
D|-------------------9-12-9--9-------------9---------------------------------|
A|---------------------------------------------------------------------------|
E|---------------------------------------------------------------------------|

e|---------------------------------------------------------------------------|
B|---------------------------------------------------------------------------|
G|------12-12-11-11----------------------------------------------------------|
D|------------------9-12-9--9-12-14-11-9-------------------------------------|
A|---------------------------------------------------------------------------|
E|---------------------------------------------------------------------------|
Добавлено: 30.09.2015
Другие материалы по этой песне:
  • Аккорды и текст

Страница создана 30.09.2015
http://primanota.ru/misc-cartoons/spooky-scary-skeletons-theme-chords.htm
Привет, Гость.
Предлагаем пройти революционный курс по гитаре.
Подарок от PrimaNota.Ru, забирай!