PrimaNota.ru - самый крупный в мире бесплатный архив песенных текстов, аккордов, табулатур и нот


Misc Cartoons - Tom And Jerry - Uncle Pecos Encore - таба

Регистрация Запомнить меня
Войти через:  Facebook Google Twitter Vk Yandex Mail.ru

Misc Cartoons - Tom And Jerry - Uncle Pecos Encore - таба

Печатать
Просмотров: 308
-------------------------------------------------------------------------------
                             Uncle Pecos Encore - Tom and Jerry
-------------------------------------------------------------------------------
Tabbed by: Mike Barela          
E-mail: mariache6@hotmail.com   

From the Tom and Jerry Cartoon "Pecos Pest" Uncle Pecos Encore Solo

Tuning: Standard

e|-----5-5-5--5-5-5--5-5-5--5-5-5--5---8-8b--8b-8b--8b-----------------------|
B|------------8-8-8--7-7-7--6-6-6--5---7-7b--7b-7b--7b-----------------------|
G|---------------------------------------------------------------------------|
D|---------------------------------------------------------------------------|
A|---------------------------------------------------------------------------|
E|---------------------------------------------------------------------------|

e|-----5-5-5--5-5-5--5-5-5--5-5-5--5-----------------------------------------|
B|------------8-8-8--7-7-7--6-6-6--5-----------------------------------------|
G|------------------------------------/9-/9-/9-/9-/9-/9----------------------|
D|---------------------------------------------------------------------------|
A|---------------------------------------------------------------------------|
E|---------------------------------------------------------------------------|

e|------12\0---/12-0----/12-0----/12-0----/12-0------------------------------|
B|---------------------------------------------------------------------------|
G|---/9----------------------------------------------------------------------|
D|---------------------------------------------------------------------------|
A|---------------------------------------------------------------------------|
E|---------------------------------------------------------------------------|

e|-----12--11--10--9---10--11--12---12--12--12-------------------------------|
B|---------------------------------------------------------------------------|
G|---/9---8---7---6---7---8---9----9---9---9---9-----------------------------|
D|---------------------------------------------------------------------------|
A|---------------------------------------------------------------------------|
E|---------------------------------------------------------------------------|

e|---------------------------------------------------------------------------|
B|---9h10-8h9-7h8-6h7-5h6-----5h6-6h7-7h8-8h9-9h10---------------------------|
G|---------------------------------------------------------------------------|
D|---------------------------------------------------------------------------|
A|---------------------------------------------------------------------------|
E|---------------------------------------------------------------------------|

e|-------12--9--12-----------------------------------------------------------|
B|---------------------------------------------------------------------------|
G|---/9------------------- String Breaks-------------------------------------|
D|---------------------------------------------------------------------------|
A|-------------------X-X-X---------------------------------------------------|
E|---------------------------------------------------------------------------|

      "You Know Darn well I can't lead without a Geetar String"


If you really like this Tab or found it useful, please rate and leave comments!







************************************

| /   slide up
| \   slide down
| h   hammer-on
| p   pull-off
| ~   vibrato
| +   harmonic
| x   Mute note
| b   Bend
| pb  Pre-bend
| br  Bend release
| pbr Pre-bend release
| brb Bend release bend

************************************

Добавлено: 30.09.2015
Другие материалы по этой песне:
  • Аккорды и текст

Страница создана 30.09.2015
http://primanota.ru/misc-cartoons/tom-and-jerry-uncle-pecos-encore-chords.htm
Привет, Гость.
Предлагаем пройти революционный курс по гитаре.
Подарок от PrimaNota.Ru, забирай!