PrimaNota.ru - самый крупный в мире бесплатный архив песенных текстов, аккордов, табулатур и нот


Misc Cartoons - Tooki Kioku - таба

Регистрация Запомнить меня
Войти через:  Facebook Google Twitter Vk Yandex Mail.ru

Misc Cartoons - Tooki Kioku - таба

Печатать
Просмотров: 82
Easy version I

E |----0-1---0-1-3---1-3-5---8--7----5-3-1---3-1-0------------|
B |--3----------------------------------------------3--1------|
G |-------------------------------------------------------2---|
D |-----------------------------------------------------------|
A |-----------------------------------------------------------|
E |-----------------------------------------------------------|



E |----0-1---0-1-3---1-3-5--8--7----8-7-5---5-7-5-3--5---|
B |--3---------------------------------------------------|
G |------------------------------------------------------|
D |------------------------------------------------------|
A |------------------------------------------------------|
E |------------------------------------------------------|



E |----0-1---0-1-3---1-3-5---8-7---5-3-1---3-1--0------------|
B |--3---------------------------------------------3--1------|
G |------------------------------------------------------2---|
D |----------------------------------------------------------|
A |----------------------------------------------------------|
E |----------------------------------------------------------|



E |----0-1---0-1-3---1-3-5---8-7---5-3-1---3-1-0---------------|
B |--3-------------------------------------------3--1--3-------|
G |------------------------------------------------------------|
D |-------------------------------------------------------(3)--|
A |------------------------------------------------------------|
E |------------------------------------------------------------|


Easy version II


E |----0-1---0-1-3---1-3-3/5---8--7----5-3-1---3/1-0------------|
B |--3------------------------------------------------3--1------|
G |---------------------------------------------------------2---|
D |-------------------------------------------------------------|
A |-------------------------------------------------------------|
E |-------------------------------------------------------------|



E |----0-1---0-1-1/3---1-3-5--8--7----8-7-5---5-7-5-3--3h5---|
B |--3-------------------------------------------------------|
G |----------------------------------------------------------|
D |----------------------------------------------------------|
A |----------------------------------------------------------|
E |----------------------------------------------------------|



E |----0-1---0-1-1/3---1-3-5---8-7---5-3-1---3/1--0------------|
B |--3-----------------------------------------------3--1------|
G |--------------------------------------------------------2---|
D |------------------------------------------------------------|
A |------------------------------------------------------------|
E |------------------------------------------------------------|



E |----0-1---0-1-1/3---1-3-5---5/8-7---5/3-1---3-1----------------------|
B |--3---------------------------------------------3/5--3--1--3---------|
G |---------------------------------------------------------------------|
D |---------------------------------------------------------------(3)---|
A |---------------------------------------------------------------------|
E |---------------------------------------------------------------------|





Two Guitar version

1st Guitar

E |---------------------------------------------0-|--1----0-1-|--3----1-3-|
B |-------------------------------------------3---|-----------|-----------|
G |-----------------------------------------------|-----------|-----------|
D |-----------------------------------------------|-----------|-----------|
A |-----------------------------------------------|-----------|-----------|
E |-----------------------------------------------|-----------|-----------|


2nd Guitar

E |------5----|------5----|------5----|------5----|------5----|-----------|
B |-----------|-----------|-----------|-----------|-----------|------1----|
G |-----------|-----------|-----------|-----------|-----------|----0---0--|
D |----2---2--|----2---2--|----2---2--|----2---2--|----2---2--|-----------|
A |--0--------|--0--------|--0--------|--0--------|--0--------|--3--------|
E |-----------|-----------|-----------|-----------|-----------|-----------|

     Dm                                                          C







1st guitar

E |-3/5----8--|--7----5-3-|--1----3/1-|--0--------|-----------|---------0-|
B |-----------|-----------|-----------|------3-1--|-----------|-------3---|
G |-----------|-----------|-----------|-----------|--2--------|-----------|
D |-----------|-----------|-----------|-----------|-----------|-----------|
A |-----------|-----------|-----------|-----------|-----------|-----------|
E |-----------|-----------|-----------|-----------|-----------|-----------|


2nd Guitar

E |------1----|------3----|-----------|-----------|------5----|------5----|
B |----1---1--|--------0--|------3----|------3-1--|-----------|-----------|
G |-----------|-----------|-----------|----0------|----2---2--|----2---2--|
D |--3--------|----0------|----3---3--|-----------|--0--------|--0--------|
A |-----------|-----------|--1--------|--3--------|-----------|-----------|
E |-----------|--3--------|-----------|-----------|-----------|-----------|
 
     F           G           A#          C           Dm                                  








1st Guitar

E |--1----0-1-|-1/3---1-3-|--5-----8--|--7----8-7-|--5-----5--|--7--5--3--|
B |-----------|-----------|-----------|-----------|-----------|-----------|
G |-----------|-----------|-----------|-----------|-----------|-----------|
D |-----------|-----------|-----------|-----------|-----------|-----------|
A |-----------|-----------|-----------|-----------|-----------|-----------|
E |-----------|-----------|-----------|-----------|-----------|-----------|


2nd Guitar

E |------5----|------0----|------1----|------3----|------1----|------3----|
B |-----------|--------1--|----1---1--|-----------|----1------|--------0--|
G |----2---2--|----0------|-----------|--------0--|-----------|-----------|
D |--0--------|-----------|--3--------|----0------|--3-----3--|----0------|
A |-----------|--3--------|-----------|-----------|-----------|-----------|
E |-----------|-----------|-----------|--3--------|-----------|--3--------|

                 C           F           G           F           G                       







1st Guitar

E |--3h5------|---------0-|--1----0-1-|-1/3---1-3-|--5-----8--|--7----5-3-|
B |-----------|-------3---|-----------|-----------|-----------|-----------|
G |-----------|-----------|-----------|-----------|-----------|-----------|
D |-----------|-----------|-----------|-----------|-----------|-----------|
A |-----------|-----------|-----------|-----------|-----------|-----------|
E |-----------|-----------|-----------|-----------|-----------|-----------|


2nd Guitar

E |-----------|-----------|------1----|------0----|------1----|-----3-----|
B |------3----|--2--------|-----------|--------1--|----1---1--|--------0--|
G |-----------|-----------|----2---2--|----0------|-----------|-----------|
D |----2---2--|-----------|--0--------|-----------|--3--------|-----------|
A |--0--------|-----------|-----------|--3--------|-----------|-----------|
E |-----------|-----------|-----------|-----------|-----------|--3--------|

     A4          A           Dm          C            F          G                                       









1ra guitarra

E |--1----3/1-|--0--------|-----------|---------1-|--1----0-1-|-1/3---1-3-|
B |-----------|------3-1--|-----------|-------3---|-----------|-----------|
G |-----------|-----------|--2--------|-----------|-----------|-----------|
D |-----------|-----------|-----------|-----------|-----------|-----------|
A |-----------|-----------|-----------|-----------|-----------|-----------|
E |-----------|-----------|-----------|-----------|-----------|-----------|


2da guitarra

E |-----------|-----------|------5----|------5----|------5----|------0----|
B |------3----|------3-1--|-----------|-----------|-----------|--------1--|
G |-----------|-----------|----2---2--|----2---2--|----2---2--|----0------|
D |----3---3--|----0------|--0--------|--0--------|--0--------|-----------|
A |--1--------|--3--------|-----------|-----------|-----------|--3--------|
E |-----------|-----------|-----------|-----------|-----------|-----------|

     A#          C           Dm                                  C                               







1ra guitarra

E |--5----5/8-|--7----5/3-|--1----3-1-|-----------|--------------------------------|
B |-----------|-----------|-----------|-3/5--3--1-|-3------------------------------|
G |-----------|-----------|-----------|-----------|--------------------------------|
D |-----------|-----------|-----------|-----------|--------------------------------|
A |-----------|-----------|-----------|-----------|--------------------------------|
E |-----------|-----------|-----------|-----------|--------------------------------|


2da guitarra

E |------1----|-----3-----|-----------|-----------|------3----|--2--------|--------|
B |----1---1--|--------0--|------3----|-----------|----3------|--3--------|--------|
G |-----------|-----------|-----------|----0------|--------2--|--2--------|--------|
D |--3--------|-----------|----3---3--|-----------|--0--------|-----------|---3----|
A |-----------|-----------|--1--------|--3--------|-----------|-------0---|---1----|
E |-----------|--3--------|-----------|-----------|-----------|-----------|---1----|

     F           G           A#          C           D4          D            A#       
Добавлено: 30.09.2015
Другие материалы по этой песне:
  • Аккорды и текст

Страница создана 30.09.2015
http://primanota.ru/misc-cartoons/tooki-kioku-chords.htm
Привет, Гость.
Предлагаем пройти революционный курс по гитаре.
Подарок от PrimaNota.Ru, забирай!