PrimaNota.ru - самый крупный в мире бесплатный архив песенных текстов, аккордов, табулатур и нот


Misc Cartoons - Steven Universe - Lapis Lazuli - таба

Регистрация Запомнить меня
Войти через:  Facebook Google Twitter Vk Yandex Mail.ru

Misc Cartoons - Steven Universe - Lapis Lazuli - таба

Печатать
Просмотров: 270
LAPIS LAZULI
As recorded by Zach Callison and Stemage


Transcribed by Sam Thomas

Words and Music by Hellen Jo
Arranged by Aivi & Surasshu


Gtr I (E A D G B E) - 'Vocals'
Gtr II (E A D G B E) - 'Guitar'

        Am                     E
 4/4
  Gtr I
  E E    Q  S S S Q  +S  E E    S S Q  S Q  S S S E
|-----|----------------------|----------------------|
|-----|----------------------|----------------------|
|-----|----------------------|----------------------|
|---0-|--2--2-2-2-2--(2)---0-|--2-2-2--2-2--2-2-2-2-|
|-3---|------------------3---|----------------------|
|-----|----------------------|----------------------|
|
| Gtr II
| Q      W                      W
|-----|-^0-------------------|-^0-------------------|
|-----|-^1-------------------|-^0-------------------|
|-----|-^2-------------------|-^1-------------------|
|-----|-^2-------------------|-^2-------------------|
|-----|-^0-------------------|-^2-------------------|
|-----|----------------------|-^0-------------------|


  F                   Esus4  E
   |-3-|               |-3-|
   Q Q Q +E  E E E     Q Q Q  Q.   E
|-------------------|-----------------|
|-------------------|-----------------|
|-------------------|-----------------|
|--3-3-3-(3)-----0--|--2-2-2--2----2--|
|------------3-3----|-----------------|
|-------------------|-----------------|
|
|  W                   H      H
|-^1----------------|-^0-----(0)------|
|-^1----------------|-^0-----(0)------|
|-^2----------------|-^2------1-------|
|-^3----------------|-^2-----(2)------|
|-^3----------------|-^2-----(2)------|
|-^1----------------|-^0-----(0)------|


  Am              C                    Dm               F
  Q  E E Q  E E   E E E Q.       E E   Q  E Q   Q   E   E Q   Q.     E E
|---------------|--------------------|----------------|-------------------|
|-----------0-1-|---0----------------|-0--0-0---1---3-|-3-1---1------3-1--|
|-2--2-2-2------|-----2--------------|----------------|-------------------|
|---------------|-------2--------2-2-|----------------|-------------------|
|---------------|--------------------|----------------|-------------------|
|---------------|--------------------|----------------|-------------------|
|
| Q  Q   Q  E E   Q   Q    S S E Q     Q  E E Q   E E   Q   Q     Q  q
|---------------|----------0h1p0-----|--------1-------|----------^5--5----|
|--------1------|----------------1---|----3-----------|-----1----^1-------|
|---------------|-----0--------------|------2---------|----------^2-------|
|----2----------|--------------------|-0----------0-2-|-3--------^3-------|
|-0---------0-2-|-3------------------|----------------|-------------------|
|---------------|--------------------|----------------|-------------------|


  Am               E                 Am               F
  Q   E Q  E Q     Q    E Q  E E E   E Q   Q  Q   E   +Q.     Q   E E E
|-0---0-0--1-0---|------0-0--------|----------------|---------------------|
|----------------|-----------3-3-1-|-3-1------1---1-|-(1)-----1---3-1-3---|
|----------------|-----------------|-------2--------|---------------------|
|----------------|-----------------|----------------|---------------------|
|----------------|-----------------|----------------|---------------------|
|----------------|-----------------|----------------|---------------------|
|
| E E E Q  E E E   E E  E Q  E E E   E E E Q  E E E    E  E E E E E E E
|-------0--0-----|-----------------|----------------|-----------3-1-0-----|
|-----1------1---|--------0--------|-------1--------|-------1---------3---|
|--------------2-|-----^1----1-----|-----2----------|-----2---2-----------|
|---2------------|-----^2------2---|---2------2-0-2-|--3------------------|
|-0--------------|---2-^2--------2-|-0--------------|---------------------|
|----------------|-0---------------|----------------|---------------------|


  Am               E                 Am                        Fm
  Q   E Q  E Q     E E E E E E E E   Q   E Q   E  a  Q     +Q   H
|-0---0-0--1-0---|---0-0-0-0-------|---------------------|-----------*|
|----------------|-----------3-3-1-|-3---1-1-------------|-----------*|
|----------------|-----------------|-----------2-(2)S5---|-(5)-------*|
|----------------|-----------------|---------------------|-----------*|
|----------------|-----------------|---------------------|-----------*|
|----------------|-----------------|---------------------|-----------*|
|
| E E E Q  E E E   E E E E E E Q     E E E E E E     E E    W
|-------0--------|-----------------|---------0-----------|-^1--------*|
|-----1----1---1-|-----------------|-------1---1---------|-^1--------*|
|------------2---|---------1-------|-----2-----------2---|-^2--------*|
|---2------------|-----2-----2-----|---2---------------2-|-^3--------*|
|-0--------------|---2---2-----2---|-0-------------------|-^3--------*|
|----------------|-0---------------|---------------------|-^1--------*|


Duration Legend
---------------
W - whole; H - half; Q - quarter; E - 8th; S - 16th; T - 32nd; X - 64th; a - acciaccatura
+ - note tied to previous; . - note dotted; .. - note double dotted
Uncapitalized letters represent notes that are staccato (1/2 duration)
Irregular groupings are notated above the duration line
Duration letters will always appear directly above the note/fret number it represents the
duration for.  Duration letters with no fret number below them represent rests.  Multi-
bar rests are notated in the form Wxn, where n is the number of bars to rest for.  Low
melody durations appear below the staff

Tablature Legend
----------------
 h   - hammer-on
 p   - pull-off
 b   - bend
 pb  - pre-bend
 r   - bend release (if no number after the r, then release immediately)
 /\  - slide into or out of (from/to "nowhere")
 s   - legato slide
 S   - shift slide
 - natural harmonic
[n]  - artificial harmonic
n(n) - tapped harmonic
 ~   - vibrato
 tr  - trill
 T   - tap
 TP  - trem. picking
 PM  - palm muting
\n/  - tremolo bar dip; n = amount to dip
 \n  - tremolo bar down
 n/  - tremolo bar up
/n\  - tremolo bar inverted dip
 =   - hold bend; also acts as connecting device for hammers/pulls
 <> - volume swell (louder/softer)
 x   - on rhythm slash represents muted slash
 o   - on rhythm slash represents single note slash

Misc Legend
-----------
 |  - bar
||  - double bar
||o - repeat start
o|| - repeat end
*|  - double bar (ending)
 :  - bar (freetime)
 $  - Segno
 &  - Coda
Tempo markers -  = BPM(8/16=s8/s16), where s8 = swing 8ths, s16 = swing 16ths

Добавлено: 30.09.2015
Другие материалы по этой песне:

Страница создана 08.09.2015
http://primanota.ru/misc-cartoons/steven-universe-lapis-lazuli-chords.htm
Привет, Гость.
Предлагаем пройти революционный курс по гитаре.
Подарок от PrimaNota.Ru, забирай!