PrimaNota.ru - самый крупный в мире бесплатный архив песенных текстов, аккордов, табулатур и нот


Misc Cartoons - Twintail Dreamer - таба

Регистрация Запомнить меня
Войти через:  Facebook Google Twitter Vk Yandex Mail.ru

Misc Cartoons - Twintail Dreamer - таба

Печатать
Просмотров: 84
---------------------------------------------------------------------------------------------------
                          Twintail Dreamer!! - Ore Twintail ni Narimasu ED
---------------------------------------------------------------------------------------------------
Tabbed by: jeiji
E-mail: kenshinbakkabakka@ymail.com

Tuning: STANDARD


Intro:

e|--------------------------------------|
B|--------------------------------------|  <- The strumming pattern here is UP,DOWN,UP,DOWN
G|-------7-7-7-7--7-7-7-7---------------| 
D|-------x-x-x-x--x-x-x-x---------------|
A|-------5-5-5-5--5-5-5-5---------------|
E|--------------------------------------|

e|---------------------------------------------------------------------------|
B|-----8-8---8-10-12/13-13-13-13-13-13-13/15-15-15-15-15-15-15---------------|
G|-----x-x-7-x-x--x-/x--x--x--x--x--x--x-/x--x--x--x--x--x--x----------------|
D|-----5-5-x-5-7--9-/10-10-10-10-10-10-10/12-12-12-12-12-12-12---------------|
A|---------5-----------------------------------------------------------------|
E|---------------------------------------------------------------------------|

e|-----------------15-15-14-15-14-------------------------------15-14-15-14--------------------|
B|--------------15----------------15-------------------------15-------------15-----------------|
G|---7/16-16-14----------------------16-16-14----16-16-14-16-------------------14-14-14-12-----|
D|---------------------------------------------------------------------------------------------|
A|---------------------------------------------------------------------------------------------|
E|---------------------------------------------------------------------------------------------|

e|-----------------------------------------------------------------15b-15-15-15-15-17-17-17-17----------|
B|---------------------------------------12b-12b-12b-12b-12b-------15b-15-15-15-15-17-17-17-17----------|
G|---11-12-11-------------12----12-14-12-14b-14b-14b-14b-14b--16\--14b-14-14-14-14-14-14-14-14----------|
D|------------12-14-14-14----14-------------------------------------------------------------------------|
A|------------------------------------------------------------------------------------------------------|
E|------------------------------------------------------------------------------------------------------|


Verse:

e|-----------------------------------------------------------------------------------------------|
B|-----------------------------------------------------------------------------------------------|
G|------------------------------7-x-x-x-7-7-7-x-x-x-x-7------------------------------------------|
D|--x-x-5-x-5-5-x-x-x-x-5-x-x--7-x-x-x-7-7-7-x-x-x-x-7--9-x-x-x-9-x-9-9-x-x-x-x-9----------------|
A|--x-x-5-x-5-5-x-x-x-x-5-x-x--5-x-x-x-5-5-5-x-x-x-x-5--9-x-x-x-9-x-9-9-x-x-x-x-9----------------|
E|--x-x-3-x-3-3-x-x-x-x-3-x-x---------------------------7-x-x-x-7-x-7-7-x-x-x-x-7----------------|

e|-----------------------------------------------------------------------------------------------|
B|---------------------------------12-x-x-13-x-13-x-12-------------------------------------------|
G|--5-x-x-x-5-x-7-7-x-x-x-x-7-x-x--12-x-x-12-x-12-x-12-x-12-12-14-x-12\--------------------------|
D|--5-x-x-x-5-x-7-7-x-x-x-x-7-x-x--12-x-x----x----x-12-x-12-12-14-x-12\--------------------------|
A|--3-x-x-x-3-x-5-5-x-x-x-x-5-x-x----------------------------------------------------------------|
E|-----------------------------------------------------------------------------------------------|

e|----------------------------------------------------------------------------15-x-15-15-15-15-15--------|
B|--7-x-x-x-8-x-8-x-7-x-x-12-x-x-13-x-13-x-12------12-----12--12--12----------15-x-15-15-15-15-15--------|
G|--7-x-x-x-7-x-7-x-7-x-x-12-x-x-12-x-12-x-12--x-x-12-x-x-12--14b-14b---14-12-14-x-14-14-14-14-14--------|
D|--7-------------x-7-x-x-12-x-x----x----x-12--x-x-12-x-x-12---------------------------------------------|
A|-------------------------------------------------------------------------------------------------------|
E|-------------------------------------------------------------------------------------------------------|

e|-------------------------------------------------------15-15--15----14----14-----12-12-13-12-----|
B|--------------10-10-----------------------------------------15--15-----15----15--12-12-12-12-----|
G|--12----12-------------12----11---11---12--12----12------------------------------12-12-12-12-----|
D|-----12----12-------12----12------------------12----12-------------------------------------------|
A|-------------------------------------------------------------------------------------------------|
E|-------------------------------------------------------------------------------------------------|

e|-----------------------15-15-17-15-15--x-15-15--x-15-15-x------------------|
B|---------------x-x-x---15-15-15-15-15--x-12-12--x-12-12-x------------------|
G|----------12---x-x-x---14-14-14-14-14--x-12-12--x-12-12-x------------------|
D|--x-12-14-12---------------------------------------------------------------|
A|--x-12-14------------------------------------------------------------------|
E|---------------------------------------------------------------------------|


Chorus:

e|-----------------------------------------------------------------------------------------|
B|---------------/-8--8-8-8---8-8----------------/-8--8-8-8---8-8--------------------------|
G|--5-5---5--5-----x--x-x-x---x-x------------------x--x-x-x---x-x--------------------------|
D|--5-5---5--5---/-5--5-5-5---5-5---5-5---5---5--/-5--5-5-5---5-5--------------------------|
A|--5-5---5--5----------------------5-5---5---5--------------------------------------------|
E|--3-3---3--3----------------------3-3---3---3--------------------------------------------|

e|------------------------------------------------------------------------------------------------|
B|-----------------------------------------------------------------------/-8--8-8-8---8-8---------|
G|--5-5--5---5---5-5--7-7-7-7------------9--9-9-9-9-9---5---5----5---5-5---x--x-x-x---x-x---------|
D|--5-5--5---5---5-5--7-7-7-7--9---9-9---9--9-9-9-9-9---5---5----5---5-5-/-5--5-5-5---5-5---------|
A|--3-3--3---3---3-3--5-5-5-5--9---9-9---7--7-7-7-7-7---3---3----3---3-3--------------------------|
E|-----------------------------7---7-7------------------------------------------------------------|

e|------------------------------------------------------------------------------------------|
B|------------------------------------------------------------------------------------------|
G|--9----9-9-9-9-8-8-8-7--7-7-7---6-6-6-5---5-5-5----5--5-5---5--5-5-5-7---7-7-7-7-7-7------|
D|--9----9-9-9-9-9-9-9-5--7-7-7---4-4-4-5---5-5-5----5--5-5---5--5-5-5-7---7-7-7-7-7-7------|
A|--7----7-7-7-7-6-6-6-5--5-5-5---4-4-4-3---3-3-3----3--3-3---3--3-3-3-5---5-5-5-5-5-5------|
E|------------------------------------------------------------------------------------------|

e|----------------------------------------------------------------------------|
B|----------------------------------------------------------------------------|
G|--7-7-7---7--7--5--5-5-5--5-5--5--5--5--5-7---7-7-7---7--7------7-----------|
D|--7-7-7---7--7--5--5-5-5--5-5--5--5--5--5-7---7-7-7---7--7------7-----------|
A|--5-5-5---5--5--3--3-3-3--3-3--3--3--3--3-5---5-5-5---5--5------5-----------|
E|----------------------------------------------------------------------------|

e|-----------------15-15-14-15-14-------------------------------15-14-15-14--------------------|
B|--------------15----------------15-------------------------15-------------15-----------------|
G|---7/16-16-14----------------------16-16-14----16-16-14-16-----------------------------------|
D|---------------------------------------------------------------------------------------------|
A|---------------------------------------------------------------------------------------------|
E|---------------------------------------------------------------------------------------------|

e|---------------------------------------------------------|
B|----12--12--12--13--13--13--13--12b----12\---------------|
G|---------------------------------------------------------|
D|---------------------------------------------------------|
A|---------------------------------------------------------|
E|---------------------------------------------------------|



Thank You!! ^^ I hope this helps, THis is the ending song of the anime "Ore, Twintails ni Narimasu".


************************************

| /   slide up
| \   slide down
| h   hammer-on
| p   pull-off
| ~   vibrato
| +   harmonic
| x   Mute note
| b   Bend
| pb  Pre-bend
| br  Bend release
| pbr Pre-bend release
| brb Bend release bend

************************************
Добавлено: 30.09.2015
Другие материалы по этой песне:
  • Аккорды и текст

Страница создана 30.09.2015
http://primanota.ru/misc-cartoons/twintail-dreamer-chords.htm
Привет, Гость.
Предлагаем пройти революционный курс по гитаре.
Подарок от PrimaNota.Ru, забирай!