PrimaNota.ru - самый крупный в мире бесплатный архив песенных текстов, аккордов, табулатур и нот


Misc Cartoons - Choomah Island 2 - The Big Lez Show - таба, видео

Регистрация Запомнить меня
Войти через:  Facebook Google Twitter Vk Yandex Mail.ru

Misc Cartoons - Choomah Island 2 - The Big Lez Show - таба, видео

Печатать
Просмотров: 54
-----------------------------------------------------------------------------------
Choomah Island 2 song . (23:56 - 29:50) https://www.youtube.com/watch?v=7WwLT32_VAk
-----------------------------------------------------------------------------------

 INTRO 23:56
e|-0------------0------------------0-----------0-------------------------------0-------0---0----|
B|------0-------------0----0-------------0-----------0----0------0-------0---0---0-----0---0----|
G|---5--0----------5--0--5---0--------5--0--------5--0--5---0--5-----------5-------5---5---0----|
D|----------------------------------------------------------------------------------------------|
A|--------------0------------------0-----------0------------------------------------------------|
E|----------------------------------------------------------------------------------------------|

GUITAR 1 (backround)
   25:04
e|---------------------------------------------------------------------------|
B|----------------------------------0----------------------------------------|
G|---------------0-------------------------------------0---------------------|
D|------------------------10-----------------10------------------------------| (X4)
A|------0--------------------------------------------------------------------|
E|---------------------------------------------------------------------------|      
   
e|---------------------------------------------------------------------------|
B|----------------------------------0----------------------------------------|
G|---------------0-------------------------------------0---------------------|
D|------------------------10-----------------10------------------------------| (X4)
A|------7--------------------------------------------------------------------|
E|---------------------------------------------------------------------------|
    
e|---------------------------------------------------------------------------|
B|----------------------------------0----------------------------------------|
G|---------------0-------------------------------------0---------------------|
D|------------------------10-----------------10------------------------------| (X4)
A|------0--------------------------------------------------------------------|
E|---------------------------------------------------------------------------|      
    
e|---------------------------------------------------------------------------|
B|----------------------------------0----------------------------------------|
G|---------------0-------------------------------------0---------------------|
D|------------------------10-----------------10------------------------------| (X4)
A|------7--------------------------------------------------------------------|
E|---------------------------------------------------------------------------|

e|---------------------------------------------------------------------------|
B|------------------0----------------------------------0---------------------|
G|---------0-----------------0----------------0-----------------0------------| (X2)
D|-------------10-------10------------------------10-------10----------------|
A|-----0----------------------------------7----------------------------------|
E|---------------------------------------------------------------------------|

e|---------------------------------------------------------------------------|
B|------------------0----------------------------------0---------------------|
G|---------0-----------------0----------------0-----------------0------------| (X2)
D|-------------10-------10------------------------10-------10----------------|
A|---------------------------------------------------------------------------|
E|------7--------------------------------0-----------------------------------|

e|---------------------------------------------------------------------------|
B|------------------0----------------------------------0---------------------|
G|---------0-----------------0----------------0-----------------0------------| (X2)
D|-------------10-------10------------------------10-------10----------------|
A|-----0----------------------------------7----------------------------------|
E|---------------------------------------------------------------------------|

e|---------------------------------------------------------------------------|
B|------------------0----------------------------------0---------------------|
G|---------0-----------------0----------------0-----------------0------------|  
D|-------------10-------10------------------------10-------10----------------|
A|------10---------------------------------10--------------------------------|
e|---------------------------------------------------------------------------|

e|---------------------------------------------------------------------------|
B|------------------0----------------------------------0---------------------|
G|---------0-----------------0----------------0-----------------0------------|  
D|-------------10-------10------------------------10-------10----------------|
A|------7----------------------------------7---------------------------------|
E|---------------------------------------------------------------------------|
     (keeps repeating)
  

GUITAR 2   25:28
e|---------------------------------------------------------------------------|
B|----13\10/17\13-----13\10/17\13------12\8/15\12-------12\8/15\12-----------|
G|---------------------------------------------------------------------------|
D|---------------------------------------------------------------------------|
A|---------------------------------------------------------------------------|
E|---------------------------------------------------------------------------|
      25:40
e|---------------------------------------------------------------------------|
B|----13\10/17\13-----13\10/17\13------12\8/15\12-----12\8/15----15/17--17---|
G|---------------------------------------------------------------------------|
D|---------------------------------------------------------------------------|
A|---------------------------------------------------------------------------|
E|---------------------------------------------------------------------------|
      25:55
e|---------------------------+12----------------------------------+12--------|
B|------13----10----10/12------------------------------------------+12-------|
G|----------------------------9----------------------------------------------|
D|----------------------------------------/14----10----/14----9--------------|
A|---------------------------------------------------------------------------|
E|---------------------------------------------------------------------------|
      26:08
e|---------------------------+12---------------------------------------------|
B|------13----10----10/12----------------------------------------------------|
G|----------------------------9----------------------------------------------|
D|----------------------------------------/14----10----9h10---10p9-----------|
A|---------------------------------------------------------------------------| 
E|---------------------------------------------------------------------------|
              (repeats first 3 bars and skips 4th)
      26:56
e|---------10p8p7--7--------------10\2---/5---2------------------------------|
B|---------------------------------------------------------------------------|
G|----9----------------------------------------------------------------------|
D|---------------------------------------------------------------------------|
A|---------------------------------------------------------------------------|
E|---------------------------------------------------------------------------|

      27:28
e|---------------------------------------------------------------------------|
B|----/13----/12----10---/12-------------------------------------------------|
G|---------------------------------------------------------------------------|
D|---------------------------------------/14----10----/14----9---------------|
A|---------------------------------------------------------------------------|
E|---------------------------------------------------------------------------|
      27:40
e|-----12p8----------12p8-----------12p8-------------------------------------|
B|------------8h12----------8h12-----------8h12---------/13---8---10---------|
G|---------------------------------------------------------------------------|
D|---------------------------------------------------------------------------|
A|---------------------------------------------------------------------------|
E|---------------------------------------------------------------------------|

guitar 2 pretty much repeats from then on


OUTRO @30:40 
e|-----------------------------0---------------------------------------------|
B|-------------------0-------------------0-----------------------------------|
G|--------------5-------------------5----------------------------------------|(X4) 
D|-----7------------------7-------------------7------------------------------|
A|---------------------------------------------------------------------------|
E|---------------------------------------------------------------------------|

e|-----------------------------7---------------------------------------------|
B|-------------------0-------------------0-----------------------------------|
G|--------------5-------------------5----------------------------------------|(X4)
D|-----5------------------5-------------------5------------------------------|
A|---------------------------------------------------------------------------|
E|---------------------------------------------------------------------------|



This is the first tab i've done so feel free to improve on this.
From The Big Lez Show https://www.youtube.com/watch?v=7WwLT32_VAk

************************************

| /   slide up
| \   slide down
| +   harmonic
| p   pull-off
| h   hammer-on

************************************
Добавлено: 20.03.2016
Другие материалы по этой песне:
  • Аккорды и текст

Страница создана 20.03.2016
http://primanota.ru/misc-cartoons/choomah-island-2-big-lez-show-chords.htm
Привет, Гость.
Предлагаем пройти революционный курс по гитаре.
Подарок от PrimaNota.Ru, забирай!