PrimaNota.ru - самый крупный в мире бесплатный архив песенных текстов, аккордов, табулатур и нот


Misc Cartoons - God Eater - Human After All - таба, видео

Регистрация Запомнить меня
Войти через:  Facebook Google Twitter Vk Yandex Mail.ru

Misc Cartoons - God Eater - Human After All - таба, видео

Печатать
Просмотров: 144
Ghost Oracle Drive Twitter: https://twitter.com/ghost_o_drive
-------------------------------------------------------------------------------
                   Human after all - GHOST ORACLE DRIVE ft. BiSH
-------------------------------------------------------------------------------
Tabbed by: Vertehr

Tuning: Standard

Here is the main theme:

e|----------0---------0---------------3---2----------------------------------|    |
B|-------------------------------------------------3-----------3-------------|    |
G|-2-------------------------------------------------------------------------|    |
D|---------------------------------------------------------------------------|    |
A|---------------------------------------------------------------------------|    |
E|---------------------------------------------------------------------------|    |
                                                                                  | (1st fragment)
e|-----0----------------------------------------0-----------0----------------|    |
B|-1h3-----------------------------------------------------------------------|    |
G|----------2---------2--------------0----2----------------------------------|    |
D|---------------------------------------------------------------------------|    |
A|---------------------------------------------------------------------------|    |
E|---------------------------------------------------------------------------|    |
                                                                                 =
e|----------0---------0---------------3---2----------------------------------|    |
B|-------------------------------------------------3-----------3-------------|    |
G|-2-------------------------------------------------------------------------|    |
D|---------------------------------------------------------------------------|    |
A|---------------------------------------------------------------------------|    |
E|---------------------------------------------------------------------------|    |
                                                                                  | (2nd fragment)
e|-----0---------------------------------------------------------------------|    |
B|-1h3-----------------------------------------------------------------------|    |
G|----------2---------2--------------0-----2---------------------------------|    |
D|---------------------------------------------------------------------------|    |
A|---------------------------------------------------------------------------|    |
E|---------------------------------------------------------------------------|    |


#  I know that originally we don't hear the "e" string in the end of the 1st fragment
#  (
#            this   and  this
#  e|------------0-----------0----------------|
#  B|-----------------------------------------|
#  G|-0----2----------------------------------|
#  D|-----------------------------------------|
#  A|-----------------------------------------|
#  E|-----------------------------------------|
#  )
#   but I think that when you play it on a guitar it just sounds better than continuous playing
#   the same fragment over and over again.
#
#  Of course, you can play original-like! Just play only the 2nd fragment.



And here you have a voice part, which is sung in the middle of the song
(Let's say that you play this after playing 4 times main theme):

    In~~~            this world~~~         human       after   all

e|--0-----------------------------------0-----3-----2------------0-----------|
B|------------------------3----------------------------------3---------------|
G|-----------------2---------------------------------------------------------|
D|---------------------------------------------------------------------------|
A|---------------------------------------------------------------------------|
E|---------------------------------------------------------------------------|

    In~~~            this world~~~         human       after   all

e|--0-----------------------------------0-----3-----2------------0-----------|
B|------------------------3----------------------------------3---------------|
G|-----------------2---------------------------------------------------------|
D|---------------------------------------------------------------------------|
A|---------------------------------------------------------------------------|
E|---------------------------------------------------------------------------|

************************************

| h   hammer-on

************************************
If you have some suggestions - feel free to leave a comment!
I'm tabbing mostly calm, sad and/or beautiful songs.
If you want me to tab a song, e-mail me!
E-mail: giminx@gmail.com
Thanks!
Добавлено: 20.03.2016
Другие материалы по этой песне:
  • Аккорды и текст

Страница создана 20.03.2016
http://primanota.ru/misc-cartoons/god-eater-human-after-all-chords.htm
Привет, Гость.
Предлагаем пройти революционный курс по гитаре.
Подарок от PrimaNota.Ru, забирай!