PrimaNota.ru - самый крупный в мире бесплатный архив песенных текстов, аккордов, табулатур и нот


Misc Cartoons - My Little Pony Friendship Games - Trailer Song - таба, видео

Регистрация Запомнить меня
Войти через:  Facebook Google Twitter Vk Yandex Mail.ru

Misc Cartoons - My Little Pony Friendship Games - Trailer Song - таба, видео

Печатать
Просмотров: 89
-------------------------------------------------------------------------------
                             My Little Pony: Equestria Girls - Friendship Games - trailer song
-------------------------------------------------------------------------------
Tabbed by: Jericho_Mark_VI
E-mail: kainjerichopl@gmail.com

Tuning: E-standard

link to my cover: https://www.youtube.com/watch?v=XuOtzG0hqdQ
TABS:

Clean rhythm guitar:
from 0:07
e-----------------------------------------------------------------------------------|
B-----------------------------------------------------------------------------------|
G------6----6--------4----4-----4-4-------------9-----9-------11---11------11-11----|
D------6----6--------4----4-----4-4-------------9-----9-------11---11------11-11----|
A------4----4--------2----2-----2-2-------------7-----7-------9----9-------9---9----|
E-----------------------------------------------------------------------------------|

e----------------------------------------------------------------------------------|
B----------------------------------------------------------------------------------|
G-------------------6----6--------4----4-----4-4-------------9-----9-------11\-----|
D-------------------6----6--------4----4-----4-4-------------9-----9-------11\-----|
A-------------------4----4--------2----2-----2-2-------------7-----7-------9-\-----|
E----------------------------------------------------------------------------------|

Clean lead guitar:
from: 0:09

e-------------------------------------------------------------------------------------------------------------|
B----------------------------------------------------9---9------------------------------------------9---9-----|
G---------9--9---------11-----11----9------9----11----------11---9----------------------------9--11-------11\-|
D---9--11------11---9------------------------------------------------11----11-----9-----9--11-----------------|
A-------------------------------------------------------------------------------------------------------------|
E-------------------------------------------------------------------------------------------------------------|



Electric rhythm guitar:
from: 0:19
e------------------------------------------------------------------------------------------------------------|
B------------------------------------------------------------------------------------------------------------|
G------4---------6\---------------4-----------6-------------------4----------6----------------4----------6\--|
D------4---------6\---------------4-----------6-------------------4----------6----------------4----------6\--|
A------2---------4\---------------2-----------4-------------------2----------4----------------2----------4\--|
E------------------------------------------------------------------------------------------------------------|

from: 0:29
                                                               
e-------------------------------------------------------------|   \
B-------------------------------------------------------------|    \
G------6-------6----6------------4-------4--4--4--4--4--4-----|     \
D------6-------6----6------------4-------4--4--4--4--4--4-----|      \
A------4-------4----4------------2-------2--2--2--2--2--2-----|       \
E-------------------------------------------------------------|        \
                                                                        x2 
e-------------------------------------------------------------|        /   
B-------------------------------------------------------------|       /                                       
G-----9--------9----9----------11-----11-11--11--11--11-------|      /                                          
D-----9--------9----9----------11-----11-11--11--11--11-------|     /
A-----7--------7----7----------9------9--9---9---9---9--------|    /                                         
E-------------------------------------------------------------|   /
                                                                  

Clean lead guitar
from: 0:29

e-----------12---------11----------14----------12--|
B-----------14---------12----------12----------12--|
G--------------------------------------------------|   I wrote this like that, but when you play 
D--------------------------------------------------|     you must play it like on video. : p
A--------------------------------------------------|
E--------------------------------------------------|

Electric rhythm guitar:
from: 0:39

e-----------------------------------------------------------------------------------------------|
B-----------------------------------------------------------------------------------------------|
G-----------------------------------------------------------------------------------------------|
D-----------------------------------------------------------------------------------------------|
A-------2-----(2)---(2)--------4----(4)---(4)---(4)----6-----(6)---(6)---(6)----8----9---8---9--|
E-------0-----(0)---(0)--------2----(2)---(2)---(2)----4-----(4)---(4)---(4)----6----7---6---7--|

e-------------------------------------------------------------------------|
B-------------------------------------------------------------------------|
G-------------------------------------------------------------------------|
D-------------------------------------------------------------------------|
A-------2-----(2)----(2)-------4----(4)---(4)---(4)----6---6--6--6--6--6--|
E-------0-----(0)----(0)-------2----(2)---(2)---(2)----4---4--4--4--4--4--|

Electric lead guitar:
from: 0:39

e------------------------------------------------------------------------------|
B------------------------------------------------------------------------------|
G-----9~~~---11~~~----13~~~----15--16--15--16~~------13~~~~---15~~~~---17~~~~--|
D------------------------------------------------------------------------------|
A------------------------------------------------------------------------------|
E------------------------------------------------------------------------------|

from: 0:53

e---------------------------------------------|
B---------------------------------------------|
G---------------------------------------------|
D--------5p3----3--3----3---------------------|
A-------------5------5----5----3h4h5p4p3------|
E---------------------------------------------|


e---------------------------------------------------------------|
B---------------------------------------------------------------|
G----2--2--2--2--2--2--2--2---5--5--5--5------------------------|
D----2--2--2--2--2--2--2--2---5--5--5--5----5--5--5--5----------|
A----0--0--0--0--0--0--0--0---3--3--3--3----5--5--5--5----------|
E-------------------------------------------3--3--3--5----------|


e-----------------------------------------------------------|
B-----------------------------------------------------------|
G----7---7-----5-----7--7------------7---7-----5----7\------|
D----7---7-----5-----7--7-----5------7---7-----5----7\------|
A----5---5-----3-----5--5-----5------5---5-----3----5\------|
E-----------------------------3-----------------------------|

e-------------------------------------------------------------------------------|
B-------------------------------------------------------------------------------|
G------7---7-----5-----7--7-------------7---7---5----7\-------7---7---5----7\---|
D------7---7-----5-----7--7------5------7---7---5----7\-------7---7---5----7\---| 
A------5---5-----3-----5--5------5------5---5---3----5\-------5---5---3----5\---|
E--------------------------------3----------------------------------------------|
 you have to figure out when muted strings are. You have to catch the rhythm. : p

************************************

| /   slide up
| \   slide down
| h   hammer-on
| p   pull-off
| ~   vibrato
| +   harmonic
| x   Mute note
| b   Bend
| pb  Pre-bend
| br  Bend release
| pbr Pre-bend release
| brb Bend release bend

************************************
Добавлено: 20.03.2016
Другие материалы по этой песне:
  • Аккорды и текст

Страница создана 20.03.2016
http://primanota.ru/misc-cartoons/my-little-pony-friendship-games-trailer-song-chords.htm
Привет, Гость.
Предлагаем пройти революционный курс по гитаре.
Подарок от PrimaNota.Ru, забирай!